>
 >
Splitter Pine

Splitter Pine Guitar Tabs

Dumdum Boys - Splitter Pine chords, tabs, tablatures, lyrics

Guitar lessons | Add/correct | Request | Top 50 tabs Artists:  A B C D E F G H I J K L M N O P Q R S T U V W X Y Z 0-9

Splitter Pine Guitar Tabs – Dumdum Boys

CD, Sheet music, Poster

Do you like Splitter Pine? Share with your friends now
ChordsTabsTabs v2Tabs v3Tabs v4Ukulele

Splitter Pine by DumDum Boys

The Riff:

e|--------------------------------------------------------|
b|--------------------------------------------------------|
g|o-------------------------4~~----------------------4~~--|
d|o-----4-3-0-2-0-----------4~~---4-3-0-2-0----------4~~--|
a|---0h2----------2-0-2-0-2----0h2---------2-0-2-0-2------|
e|--------------------------------------------------------|

                          D
e|------------------------------------|
b|------------------------3--3-3-3----|
g|------------------------2--2-2-2---o|
d|--0-4-3-0-2-0-----------0--0-x-0---o|  2 times
a|--------------2-0-2-0-2------4b-----|
e|------------------------------------|

Verse: (Offbeatriff)

            Hei, hvor enn du er i verden....
    B5                A5                E5               G
e|-----------------------------------------------------3~~------|---|
b|-----------------------------------------------------3~~------|---|
g|o--4-4-x-4-x-4-x-4-x-2-x-2-x-2-x-2-7/9-x-9-x-9-x-9---0~~-----o|-4-|
d|o--4-4-x-4-x-4-x-4-x-2-x-2-x-2-x-2-7/9-x-9-x-9-x-9---0~~-5---o|-2-|
a|---0h2-x-2-x-2-x-2-x-0-x-0-x-0-x-0-5/7-x-7-x-7-x-7---x~~---0--|-2-|
e|-----------------------------------------------------3~~3-3---|---|

Pre Chorus:
       Mas, mas, mas over hele linja...
     G5              E5              B5                A5          E5
e|------------------------------------------------------------------------|
b|------------------------------------------------------------------------|
g|-----------------------------------4-4-x-4-x-4-x-4-x-2-x-2-2-2-2--------|
d|-x-5-x-5-x-5-x-5-x-2-x-2-x-2-x-2-x-4-4-x-4-x-4-x-4-x-2-x-2-2-2-2-2-2--2-|
a|-x-5-x-5-x-5-x-5-x-2-x-2-x-2-x-2-x-0h2-x-2-x-2-x-2-x-0-x-0-0-0-0-2-2--2-|
e|-x-3-x-3-x-3-x-3-x-0-x-0-x-0-x-0-x-------------------------------0-0--0-|

Chorus:
  Splitter pi - ine, Splitter pine..
  Guitar 1
e|-------------------------------------------|
b|-------------------------------------------|
g|0-----------------------------------------0|
d|0---4-3-0-2-0~~-----------4-3-0-2-0~~-----0|  2 times
a|---2---------------------2-----------------|
e|-------------------------------------------|

  (Guitar 2)
     B5          A5        E             G   A
e|---------------------------------------3---------|
b|---------------------------------------3---------|
g|---4~~---------2~~-------1-------------0-x-2-2---|
d|---4~~---------2~~-------2~~-----------0-x-2-2---|
a|---2~~---------0~~-------2~~-----------x-x-0-0---|
e|-------------------------0~~-----------3---------|


  (Guitar 2)
     B5          A5        E          D  A  D  A D A
e|----------------------------------------------------|
b|----------------------------------------------------|
g|---4~~---------2~~-------1----------7-----7----7----|
d|---4~~---------2~~-------2~~--------7--7--7--7-7-7--|
a|---2~~---------0~~-------2~~--------5--7--5--7-5-7--|
e|-------------------------0~~-----------5-----5---5--|


The Riff  1x
Verse     2x
Chorus    2x (diffrent end)

The Riff:

e|----------------------------------------------------------|
b|----------------------------------------------------------|
g|o-------------------------4~~------------------------4~~--|
d|o-----4-3-0-2-0-----------4~~-----4-3-0-2-0----------4~~--|
a|---0h2----------2-0-2-0-2------0h2---------2-0-2-0-2------|
e|----------------------------------------------------------|

                          D        second time end:
e|------------------------------------|------------|
b|------------------------3--3-3-3----|------------|
g|------------------------2--2-2-2---o|------------|
d|--0-4-3-0-2-0-----------0--0-x-0---o|----0-2h0---|
a|--------------2-0-2-0-2------4b-----|-0h2-----2--|
e|------------------------------------|------------|


Verse with just the Bassguitar:

Hei, hvor enn du er i verden. Det er deilig å sløve i skyggen...

Pre Chorus:
          Mas, mas, mas over hele linja...
     G5              E5              B5                A5          E5
e|------------------------------------------------------------------------|
b|------------------------------------------------------------------------|
g|-----------------x-9-x-9-x-9-x-9-x-4-4-x-4-x-4-x-4-x-2-x-2-2-2-2--------|
d|-x-5-x-5-x-5-x-5-x-9-x-9-x-9-x-9-x-4-4-x-4-x-4-x-4-x-2-x-2-2-2-2-2-2--2-|
a|-x-5-x-5-x-5-x-5-x-7-x-7-x-7-x-7-x-0h2-x-2-x-2-x-2-x-0-x-0-0-0-0-2-2--2-|
e|-x-3-x-3-x-3-x-3---0---0---0---0---------------------------------0-0--0-|

Pre Chorus2:
    A5E     A5E B     A5E     A5E
e|-----------------------------------|
b|-----------------------------------|
g|--2-1~~---2-1-4~~---2-1~~---2-1~~--|
d|--2-2~~---2-2-4~~---2-2~~---2-2~~--|
a|--0-2~~---0-2-2~~---0-2~~---0-2~~--|
e|----0~~-----0---------0~~-----0~~--|


Chorus   4x

LeadGuitar over Chorus

e|-------------------------|
b|-------------------------|
g|0-14-14-14-11-9-5-9-11-0-|
d|0--x--x--x--x-x-x-x--x-0-| 7 times
a|--12-12-12--9-7-5-7--9---|
e|-------------------------|


The end of the Chorus
    D5     A5
e|-----------------|
b|-----------------|
g|--7-7-7----------|
d|--7-7-7--77-7-7\-|
a|--5-5-5--77-7-7\-|
e|---------55-5-5\-|





Comments


Popular Dumdum Boys tabs & chords
Stjernesludd 1 Chords
Blind Tabs
En Vill En Tabs
Enhjrning Lead Guitar Tabs
Hagelangs Tabs
Hei Det Er Meg Tabs
Splitter Pine 2 Tabs
Splitter Pine 3 Tabs
Tyven Tyven Tabs
Splitter Pine Ukulele


Song lyrics



↑ Back to top | Tablatures and chords are parodies/interpretations of the original songs. You may use it for private study, scholarship, research or language learning purposes only
© 2014 AZChords.com Contact us | Privacy policy | DMCA | Add/correct tabs | Request tabs | Top 50 tabs