» » »

Dumdum Boys, Splitter Pine Tabs (ver.3)

Artists:  A B C D E F G H I J K L M N O P Q R S T U V W X Y Z # 

Splitter Pine Tabs (ver.3)

Dumdum Boys Tabs
Rating:
4/5 (3 votes)
Splitter Pine lessons Tabs too difficult? Try these video lessons and learn fast
                -------------------------------------------------------------------------------
                             SPLITTER PINE - Dumdum Boys
-------------------------------------------------------------------------------

Tuning: standard
Intro:
                  B5                      B5                     D5        x2
e|---------------------------------------------------------------------------------|
B|-------------------------------------------------------------------3-3----3---3-o|
G|--------------------4-----------------------4----------------------2-2-2--2-2-2--|
D|--3-2-0-2-0---------4----3-2-0-2-0----------4----3-2-0-2-0---------0-0-2--0-2-0-o|
A|0-----------2-0-2-0-2--0------------2-0-2-0-2--0-----------2-0-2-0-----0----0----|
E|---------------------------------------------------------------------------------|

Verse:  (strum chords self *only one strum(not only for verse; for the whole song))
  B5      A5    D5*  E5*     X2
e|---------------------------|
B|--------------3------------|
G|-4------2-----2--------4\-o|
D|-4------2-----0----2---4\--|
A|-2------0----------2------o|
E|-------------------0-------|

Pre-chorus:
   B5     E5      B5    A5 E5 A5*
e|-----------------------------|
B|-----------------------------|
G|-4--------------4-----2----2-|
D|-4------2-------4-----2--2-2-|
A|-2------2-------2-----0--2-0-|
E|--------0----------------0---|

Chorus:
   B5  A5 E5 D5* B5 A5 E5 D5* A5 E5 A5  D5
e|----------------------------------------------|
B|------------3-----------3------3-------3------|
G|--4---2-----2---4--2----2---2--2---2---2------|
D|--4---2--2--0---4--2--2-0---2--0---2---0------|
A|--2---0--2------2--0--2-----0------0----------|
E|---------0------------0-----------------------|

Play intro riffx1
Play verse x2
Pre-chorus x1
Chorus X1 with fill 1
Fill 1
e|---------------------------------------------------------------------------|
B|-3-3-----------------------------------------------------------------------|
G|-2-2-2-2-------------------------------------------------------------------|
D|-0-0-2-2-------------------------------------------------------------------|
A|-----0-0-------------------------------------------------------------------|
E|---------------------------------------------------------------------------|

Intro x2

3. verse without guitar

Fill 2 before last chorus
e|---------------------------------------------------------------------------|
B|-3----3-----3----3---------------------------------------------------------|
G|-2-2--2-2---2-2--2-2-------------------------------------------------------|
D|-0-2--0-2-2-0-2--0-2-2-----------------------------------------------------|
A|---0----0-2---0----0-2-----------------------------------------------------|
E|----------0----------0-----------------------------------------------------|

Same riff on chorus, but after one time a new guitar play this riff some times an the song fade out
e|--------------------------------------------------------------------------------------|
B|--------------------------------------------------------------------------------------|
G|-2/4/7-7\4\2--------------------------------------------------------------------------|
D|--------------------------------------------------------------------------------------|
A|--------------------------------------------------------------------------------------|
E|--------------------------------------------------------------------------------------|
            
Submit corrections

comments powered by Disqus
↑ Back to top | Dumdum Boys Tabs for Splitter Pine. Lyrics for acoustic guitar and electric guitar. Tablatures and chords are parodies/interpretations of the original songs. You may use it for private study, scholarship, research or language learning purposes only