» » »

Duff Mckagans Loaded, Iou Tabs (ver.2)

Artists:  A B C D E F G H I J K L M N O P Q R S T U V W X Y Z # 

Iou Tabs (ver.2)

Duff Mckagans Loaded Tabs
 Rating:
3.3/5 (6 votes)
Iou lessons Tabs too difficult? Try these video lessons and learn fast
                IOU by Duff McKagans Loaded

Standard Tuning

INTRO/VERSE                                  x6
e---------------------------------------------|
B---------------------------------------------|
G-----------6-6-6-6-6-----------6-6-6---------|
D--8-8-8-8--6-6-6-6-6--4-4-4-4--6-6-6--6-6/7--|
A--8-8-8-8--4-4-4-4-4--4-4-4-4--4-4-4--6-6/7--|
E--6-6-6-6-------------2-2-2-2---------4-4/5--|

CHORUS 0.44
e--------------------------------------------------------------------------|
B--------------------------------------------------------------------------|
G--8-8-8-8-8-8-8-8-------------------6-6-6-6-6-6-6-6-----------------------|
D--8-8-8-8-8-8-8-8--8-8-8-8-8-8-8-8--6-6-6-6-6-6-6-6--6-6-6-6-6-6-6-6-6-6/7|
A--6-6-6-6-6-6-6-6--8-8-8-8-8-8-8-8--4-4-4-4-4-4-4-4--6-6-6-6-6-6-6-6-6-6/7|
E-------------------6-6-6-6-6-6-6-6-------------------4-4-4-4-4-4-4-4-4-4/5|

2.01                                        x4
e--------------------------------------------|
B--------------------------------------------|
G--4-4-4--------6-6-6--------4-4-4-----4-11--|
D--4-4-4-4-4-4--6-6-6-7-7-7--4-4-4-4---4-11--|
A--2-2-2-4-4-4--4-4-4-7-7-7--2-2-2-4-0-2-9---|
E--------2-2-2--------5-5-5--------2---------|


Song ends on VERSE RIFF then
e------------|
B------------|
G------------|
D--6-6/7-8~--|
A--6-6/7-8~--|
E--4-4/5-6~--|

Any corrections please comment
Thanks
            
Submit corrections

comments powered by Disqus
↑ Back to top | Duff Mckagans Loaded Tabs for Iou. Lyrics for acoustic guitar and electric guitar. Tablatures and chords are parodies/interpretations of the original songs. You may use it for private study, scholarship, research or language learning purposes only