>
 >
Iou 2

Iou 2 Guitar Tabs

Duff Mckagans Loaded - Iou 2 chords, tabs, tablatures, lyrics

Guitar lessons | Add/correct | Request | Top 50 tabs Artists:  A B C D E F G H I J K L M N O P Q R S T U V W X Y Z 0-9

Iou 2 Guitar Tabs – Duff Mckagans Loaded

CD, Sheet music, Poster

Do you like Iou 2? Share with your friends now
ChordsTabsTabs v2Tabs v3Ukulele
Band: Loaded
Tuning: Eb (half-step down) [this might be played in standard tuning too]

It's my first "full" tab. Hope it's right ;)
Feel free to submit corrections

e|----------------------------------------------------------------|
B|----------------------------------------------------------------|
G|---------------7--7--7-7-7-7-7---------------7--7--7-7-7--------|  
D|--9--9--9-9-9--7--7--7-7-7-7-7--5--5--5-5-5--7--7--7-7-7-7-7/8--| 
A|--9--9--9-9-9--5--5--5-5-5-5-5--5--5--5-5-5--5--5--5-5-5-7-7/8--| 
E|--7--7--7-7-7-------------------3--3--3-3-3--------------5-5/6--|

Final time

e|----------------------------------------------------------------|
B|----------------------------------------------------------------|
G|---------------7--7--7-7-7-7-7---------------7--7--77777777--------|  
D|--9--9--9-9-9--7--7--7-7-7-7-7--5--5--5-5-5--7--7--77777777-7-7/8--| 
A|--9--9--9-9-9--5--5--5-5-5-5-5--5--5--5-5-5--5--5--55555555-7-7/8--| 
E|--7--7--7-7-7-------------------3--3--3-3-3-----------------5-5/6--|

Chorus

e|---------------------------------------------------------------------------------------------------|
B|---------------------------------------------------------------------------------------------------| 
G|--13-13-13-13-13-13-13-13-13-13-13-13-13-13-13-13-11-11-11-11-11-11-11-11-11-11-11-11-11-11-11-11--|
D|---x--x--x--x--x--x--x--x--x--x--x--x--x--x--x--x--x--x--x--x--x--x--x--x--x--x--x--x--x--x--x--x--|
A|--11-11-11-11-11-11-11-11-11-11-11-11-11-11-11-11--9--9--9--9--9--9--9--9--9--9--9--9--9--9--9--9--|
E|---------------------------------------------------------------------------------------------------|

e|---------------------------------------------------------------------------------------------------|
B|---------------------------------------------------------------------------------------------------| 
G|---9-11-11-11-11-11-11-11-11-11-11-11-11-11-11-11--9--9--9--9--9--9--9--9--9--9--9--9--9--9--9--9--|
D|---x--x--x--x--x--x--x--x--x--x--x--x--x--x--x--x--x--x--x--x--x--x--x--x--x--x--x--x--x--x--x--x--|
A|---7--9--9--9--9--9--9--9--9--9--9--9--9--9--9--9--7--7--7--7--7--7--7--7--7--7--7--7--7--7--7--7--|
E|---------------------------------------------------------------------------------------------------|


e|------------------------------------------------------------------|
B|------------------------------------------------------------------|
G|-9-9-9-9-9-9-9-9-9-9-9-9-9-9-9-9----------------------------------|
D|-9-9-9-9-9-9-9-9-9-9-9-9-9-9-9-9-9-9-9-9-9-9-9-9-9-9-9-9-9-9-9-9--|
A|-7-7-7-7-7-7-7-7-7-7-7-7-7-7-7-7-9-9-9-9-9-9-9-9-9-9-9-9-9-9-9-9--|
E|---------------------------------7-7-7-7-7-7-7-7-7-7-7-7-7-7-7-7--|

e|------------------------------------------------------------------|
B|------------------------------------------------------------------|
G|-7-7-7-7-7-7-7-7-7-7-7-7-7-7-7-7----------------------------------|
D|-7-7-7-7-7-7-7-7-7-7-7-7-7-7-7-7-7-7-7-7-7-7-7-7-7-7-7-7-7-7-7-7--|
A|-5-5-5-5-5-5-5-5-5-5-5-5-5-5-5-5-7-7-7-7-7-7-7-7-7-7-7-7-7-7-7-7--|
E|---------------------------------5-5-5-5-5-5-5-5-5-5-5-5-5-5-5-5--|


Bridge

e|------------------------------------------------------|
B|------------------------------------------------------|
G|-5--5-5------------7--7-7------------5-5-5-----5-/-12----|
D|-5--5-5---5--5-5---7--7-7---8--8-8---3-3-3-5---5-/-12----|
A|-3--3-3---5--5-5---5--5-5---8--8-8---3-3-3-5-1-3-/-10----|
E|----------3--3-3------------6--6-6---------3-------------|


Solo
e|----------------------------------------------------------|
B|----------------------------------------------------------|
G|-13-13-13-13-13-13-13-13/16-16-16-16-16-16-16-16-13-13--|
D|--x--x--x--x--x--x--x--x--x--x--x--x--x--x--x--x--x--x--|
A|-11-11-11-11-11-11-11-11/14-14-14-14-14-14-14-14-11-11--|
E|----------------------------------------------------------|

e|--------------------------------------------------------|
B|--------------------------------------------------------|
G|-11-11-11-11-11-11-11-11/18-18-18-18-18-18-18-18-14-14--|
D|--x--x--x--x--x--x--x--x--x--x--x--x--x--x--x--x--x--x--|
A|--9--9--9--9--9--9--9--9/16-16-16-16-16-16-16-16-12-12--|
E|--------------------------------------------------------|

e|--------------------------------------------|
B|--------------------------------------------|
G|-18-16-13-11-16-13-11--9--9-11-13-16---18~--|
D|--x--x--x--x--x--x--x--x--x--x--x--x----x---|
A|-16-14-11--9-14-11--9--7--7--9-11-14---16~--|
E|--------------------------------------------|





Comments


Popular Duff Mckagans Loaded tabs & chords
Iou Chords
Mothers Day Chords
Flatline Tabs
Flatline 3 Tabs
Iou Tabs
Iou 1 Tabs
Seattlehead Tabs
Sick Tabs
Sleaze Factory Tabs
Sleaze Factory 1 Tabs


Song lyrics



↑ Back to top | Tablatures and chords are parodies/interpretations of the original songs. You may use it for private study, scholarship, research or language learning purposes only
© 2014 AZChords.com Contact us | Privacy policy | DMCA | Add/correct tabs | Request tabs | Top 50 tabs