>
 >
Step Up

Step Up Guitar Tabs

Drowning Pool - Step Up chords, tabs, tablatures, lyrics

Guitar lessons | Add/correct | Request | Top 50 tabs Artists:  A B C D E F G H I J K L M N O P Q R S T U V W X Y Z 0-9

Step Up Guitar Tabs – Drowning Pool

CD, Sheet music, Poster

Do you like Step Up? Share with your friends now
Bass TabsTabs
Drowning Pool
Desensitized (2004)

Tuning:- Drop B ( B F# B E G# C#)

ONE, TWO, THREE, GO!

INTRO

GUITAR 1
C#|-----------------------------------------------------------|
G#|-----------------------------------------------------------|
E |-----------------------------------------------------------|
B |-12\-3-5-6-0-0-3-5-6-0-7-7-7-7-0-3-5-6-0-0-5-5-5-0-8-8-8-8-|
F#|-12\-3-5-6-0-0-3-5-6-0-5-5-5-5-0-3-5-6-0-0-3-3-3-0-6-6-6-6-|
B |-12\-3-5-6-0-0-3-5-6-0---------0-3-5-6-0-0-------0---------|

GUITAR 2 (w/wah)
C#|-10-10-10-10-10-10-10-10-10-10-10-10-10-10-10--10\---------------|
G#|-10-10-10-10-10-10-10-10-10-10-10-10-10-10-10--10\---------------|
E |-----------------------------------------------------------------|
B |-----------------------------------------------------------------|
F#|-----------------------------------------------------------------|
B |-----------------------------------------------------------------|

VERSE

GUITAR 1
C#|-----------------------------------------------|
G#|-----------------------------------------------|
E |-----------------------------------------------|
B |-6-6-0-0-6-6-0-0-0-3-5-6-0-0-3-3-3-3-0-1-1-1-0-|
F#|-6-6-0-0-6-6-0-0-0-3-5-6-0-0-3-3-3-3-0-1-1-1-0-|
B |-6-6-0-0-6-6-0-0-0-3-5-6-0-0-3-3-3-3-0-1-1-1-0-|
      x       x                   x x  

C#|---------------------------------------------|
G#|---------------------------------------------|
E |---------------------------------------------|
B |-6-6-0-0-6-6-0-0-0-3-5-6-0-0-3-3-3-3-8-8-8-8-|
F#|-6-6-0-0-6-6-0-0-0-3-5-6-0-0-3-3-3-3-8-8-8-8-|
B |-6-6-0-0-6-6-0-0-0-3-5-6-0-0-3-3-3-3-8-8-8-8-|
      x       x                   x x

PRE-CHORUS

GUITAR 1
C#|-----------------------------------------------|
G#|-----------------------------------------------|
E |-----------------------------------------------|
B |----------7-7-7-----------7-7-7---------7------|
F#|--0-0-0---5-5-5---0-0-0---5-5-5---0-0---5---0--|
B |--0-0-0-----------0-0-0-----------0-0-------0--|

C#|---------------------------------|
G#|---------------------------------|
E |---------------------------------|
B |---------------------------------|
F#|-------5-5-5-------5-5-5-----5---|
B |-8-8-8-------6-6-6-------6-6---6-|

CHORUS

GUITAR 1 PLAYS INTRO RIFF

GUITAR 2
C#|-------------------10-10-10-10-------------8-8-8-8----11-11-11-11-|
G#|-------------------10-10-10-10-------------8-8-8-8-----8--8--8--8-|
E |-------------------7--7--7--7--------------5-5-5-5-----8--8--8--8-|
B |-3-5-6-0-0-3-5-6-0-------------0-3-5-6-0-0---------7--------------|
F#|-3-5-6-0-0-3-5-6-0-------------0-3-5-6-0-0---------5--------------|
B |-3-5-6-0-0-3-5-6-0-------------0-3-5-6-0-0------------------------|

ON THE SECOND TIME, GUITAR 1 PLAYS;
C#|-------------------------------------------------------|
G#|-------------------------------------------------------|
E |---------------------------5-5-5-5----------8--8--8--8-|
B |-3-5-6-0-0-3-5-6-0-7-7-7-7-x-x-x-x-7-7-7-7--x--x--x--x-|
F#|-3-5-6-0-0-3-5-6-0-5-5-5-5-3-3-3-3-5-5-5-5--6--6--6--6-|
B |-3-5-6-0-0-3-5-6-0-------------------------------------|

AND GUITAR 2 PLAYS;
C#|---------------------------8-8-8-8---------11-11-11-11-|
G#|---------------------------8-8-8-8----------8--8--8--8-|
E |---------------------------5-5-5-5----------8--8--8--8-|
B |-3-5-6-0-0-3-5-6-0-7-7-7-7---------7-7-7-7-------------|
F#|-3-5-6-0-0-3-5-6-0-5-5-5-5---------5-5-5-5-------------|
B |-3-5-6-0-0-3-5-6-0-------------------------------------|

MIDDLE CHORUS

GUITAR 1
C#|------------------------------------------------------------------------|
G#|---------------------------------------------------------6-6-6-6-6-6-6-6|
E |-7-7-7-7-7-7-7-7-10-10-10-10-10-10-10-10-5-5-5-5-5-5-5-5-8-8-8-8-8-8-8-8|
B |-7-7-7-7-7-7-7-7-10-10-10-10-10-10-10-10-5-5-5-5-5-5-5-5-8-8-8-8-8-8-8-8|
F#|-5-5-5-5-5-5-5-5--8--8--8--8--8--8--8--8-3-3-3-3-3-3-3-3-6-6-6-6-6-6-6-6|
B |------------------------------------------------------------------------|

PRE-VERSE

GUITAR
C#|-----------------------------------------------------------------|
G#|-----------------------------------------------------------------|
E |-----------------------------------------------------------------|
B |-----------------------------------------------------------------|
F#|---------------------------------------------3-3-3-3-3-3-1-1-1-0-|
B |-6-0-0-0-0-0-0-0-6-0-0-0-0-0-3-5-6-0-0-0-0-0-3-3-3-3-3-3-1-1-1-0-|

BRIDGE

GUITAR 1
C#|-----------------6\4-4-4-4-4\|
G#|-------6-4-4-4-4-------------|
E |-7-7-7-----------------------|
B |-7-7-7-----------------------|
F#|-5-5-5-----------------------|
B |-----------------------------|

C#|--------------------------|
G#|-3-3-3-3-3----------------|
E |-2-2-2-2-2-15-15-13-13-13-|
B |-0-0-0-0-0-15-15-13-13-13-|
F#|-0-0-0-0-0-13-13-11-11-11-|
B |-0-0-0-0-0----------------|

SOLO

GUITAR 1
C#|--5---5---5---5----10----10----10----10----------|
G#|--8^8-8^8-8^8-8^-8-13^13-13^13-13^13-13-13-18-20-|
E |-------------------------------------------------|
B |-------------------------------------------------|
F#|-------------------------------------------------|
B |-------------------------------------------------|

C#|-5-5-5-5-5-5-5-5------10-10-10-10-10-10-10-----------|
G#|-8^--8^--8^--8^--8-13-13^---13^---13^---13^-13-18-20-|
E |-----------------------------------------------------|
B |-----------------------------------------------------|
F#|-----------------------------------------------------|
B |-----------------------------------------------------|

C#|--17----17----17----17-----17-20-20^20-20^20-20^20-20^20^|
G#|--20^20-20^20-20^20-20^-20-------------------------------|
E |---------------------------------------------------------|
B |---------------------------------------------------------|
F#|---------------------------------------------------------|
B |---------------------------------------------------------|

GUITAR 2 PLAYS A MODIFICATION OF THE PRE-VERSE

OUTRO

C#|-------------------------------------------------------------|
G#|-------------------------------------------------------------|
E |-------------------------------------------------------------|
B |-6-0-0-0-0-0-6-0-0-0-0-0-3-5-6-0-0-0-0-0-3-3-3-3-3-3-1-1-1-0-|
F#|-6-0-0-0-0-0-6-0-0-0-0-0-3-5-6-0-0-0-0-0-3-3-3-3-3-3-1-1-1-0-|
B |-6-0-0-0-0-0-6-0-0-0-0-0-3-5-6-0-0-0-0-0-3-3-3-3-3-3-1-1-1-0-|

C#|-----------------------|
G#|-----------------------|
E |-----------------------|
B |-3-3-3-3-8-8-8-8-12\-0-|
F#|-3-3-3-3-8-8-8-8-12\-0-|
B |-3-3-3-3-8-8-8-8-12\-0-|

PLAY ORDER

INTRO
VERSE
PRE-CHORUS X2
CHORUS
MIDDLE CHORUS
CHORUS
PRE-VERSE
VERSE
PRE-CHORUS X2
CHORUS
MIDDLE CHORUS
CHORUS
BRIDGE
PRE-CHORUS
SOLO
CHORUS 
MIDDLE CHORUS
CHORUS
OUTRO





Comments


Popular Drowning Pool tabs & chords
Duet Bass Tabs
Step Up Bass Tabs
Bodies 2 Tabs
Feel Like I Do 2 Tabs
I Am Tabs
I Am 1 Tabs
Killin' Me Tabs
Sermon 1 Tabs
Tear Away 1 Tabs
This Life Tabs


Song lyrics



↑ Back to top | Tablatures and chords are parodies/interpretations of the original songs. You may use it for private study, scholarship, research or language learning purposes only
© 2014 AZChords.com Contact us | Privacy policy | DMCA | Add/correct tabs | Request tabs | Top 50 tabs