>
 >
Step Up

Step Up Bass Tabs

Drowning Pool - Step Up chords, tabs, tablatures, lyrics

Guitar lessons | Add/correct | Request | Top 50 tabs Artists:  A B C D E F G H I J K L M N O P Q R S T U V W X Y Z 0-9

Step Up Bass Tabs – Drowning Pool

CD, Sheet music, Poster

Do you like Step Up? Share with your friends now
Bass TabsTabs
Tuning: tuned to Drop D, then tuned down one and a half steps
low to high: (B, F#, B, E)

Intro  (0:00)
E------|
B------|
F#-----
B--x\--

E---------------------------------------------------------------------|
B---------------------------------------------------------------------|  X2
F#--------------------------------------------------------------------|
B--3-5-6-0~-0-3-5--6-0--0-0-0-0-0--3-5-6-0~-0-10-10-10-0-0-0-1-1-1-1--|

Verses  (0:14, 1:09)
E------------------------------------------------|
B------------------------------------------------|
F#-----------------------------------------------|
B--6-x-x-0--0-6-x--x-0--0--0-3-5--6-x-x-0--0--3--|

E-------------------------------------------------|
B-------------------------------------------------|
F#------------------------------------------------|
B--x-3--3-1-1-1-0--6-x-x-0--0-6-x--x-0--0--0-3-5--|

E-------------------------------------|
B-------------------------------------|
F#------------------------------------|
B--6-x-x-0--0--3----x-3-3/8--8-8-8-8--|

Pre-chorus  (0:26, 1:21)
E---------------------------------------------|
B---------------------------------------------|
F#--------------------------------------------|
B--0-0-0-12--12-12-0-0--0-12-12-12--0-0-12-0--|

E---------------------------------------------------------|
B---------------------------------------------------------|
F#-------5-5-5-------5-5-5-----5-5------------------------|
B--8-8-8-------6-6-6-------6-6------0-0--0--12-12-12-0-0--|

E--------------------------------------------------------------|
B--------------------------------------------------------------|
F#-----------------------------5--5-5----------5----5----------|
B--0-12-12-12--0-0-12-0--8-8-8--------6-6--6-6---6----6--(6\)--|
							  Dont play 2nd time = ( )
Chorus  (0:38, 1:34)
E---------------------------------------------------------------------|
B---------------------------------------------------------------------|
F#--------------------------------------------------------------------|
B--3-5-6-0~-0-3-5--6-0--0-0-0-0-0--3-5-6-0~-0-10-10-10-0-0-0-1-1-1-1--|

E-------------------------------------------------------------------------|
B-------------------------------------------------------------------------|
F#------------------------------------3-3-3-3--3-3---------------6-6-6-6--|
B--3-5-6-0~-0-3-5--6--0----0-0-0-0-0---------------1-1--1-1-1-1-----------|

E--------------------------------------------------------------------------|
B--------------------------------------------------------------------------|
F#-------------------------------------3-3-3-3--3-3------------------------|
B--0-0-0-0--0-0-3-3--3-3-3-3--3-3-3-0---------------1-1--1-1-1-1--1-1-1-1--|

E---------------------------------------------------------------------|
B---------------------------------------------------------------------|
F#--------------------------------------------------------------------|
B--3-5-6-0~-0-3-5--6-0--0-0-0-0-0--3-5-6-0~-0-10-10-10-0-0-0-1-1-1-1--|

E--------------------------------------------------------------------------|
B--------------------------------------------------------------------------|
F#-------------------------------------------------------------------------|
B--6-0-0-0--0-0-6-0--0-0-0-0--0-0-3-5--6-0-0-0--0-0-3-3--3-3-3-3--1-1-1-0--|

(1:58)  end of 2nd chorus
E----------------------|
B----------------------|
F#---------------------|
B--0-0-0-12-12-12-0-0--|

e------------------------------------------------------------|
B------------------------------------------------------------|
F#-----------------------------5--5-5--------5-5-5------5-5--|
B--0-12-12-12--0-0-12-0--8-8-8--------6-6--6--------6-6------|

E----------------------|
B----------------------|
F#---------------------|
B--0-0-0-12-12-12-0-0--|

e------------------------------------------------------------|
B------------------------------------------------------------|
F#-----------------------------5--5-5--------5-5-5------5-5--|
B--0-12-12-12--0-0-12-0--8-8-8--------6-6--6--------6-6------|

Bridge  (2:11)
E--------------------------------------------------------------------------------|
B--------------------------------------------------------------------------------|
F#-------------------------------------------------5--5-5--------5-5-5------5-5--|
B--0-0-0-12-12-12-0-0--0-12-12-12--0-0-12-0--8-8-8--------6-6--6--------6-6------|

E--------------------------------------------------------------------------------|
B--------------------------------------------------------------------------------|
F#-------------------------------------------------5--5-5------------------------|
B--0-0-0-12-12-12-0-0--0-12-12-12--0-0-12-0--8-8-8--------6-6--6-0-0-0--6-6--x\--|

Guitar Solo  (2:23)
E----------------------------------------------------------------|
B----------------------------------------------------------------|  X2
F#---------------------------------------------------------------|
B--1--0--0~-0-3-0~-0--0-5-0-6-3\1--0--0-0-0-3-0~-0-0-0-5-0-6-3\--|

Bass Fill  (2:35)
E------------|
B------------|
F#-----------|
B------0-x\--|

Outro  (3:00)
E---------------------------------------------------------|
B---------------------------------------------------------|
F#--------------------------------------------------------|
B--6-0-0-0--0-0-6-0--0-0--0-0--0-0-3-5--6-0-0-0--0-0-3-3--|

1st Time
E--------------------|
B--------------------|
F#-------------------|
B--3-3-3-3--1-1-1-0--|

2nd Time
E--------------------------|
B--------------------------|
F#-------------------------|
B--3-3-3-3/8-8-8-8--12~\0--|





Comments


Popular Drowning Pool tabs & chords
Bodies 2 Bass Tabs
Soldiers Bass Tabs
Tear Away Bass Tabs
Alcohol Blind Intro Tabs
Bodies 2 Tabs
Let The Bodies Hit The Floor Tabs
Numb Tabs
Tear Away (Solo) Tabs
The Game 1 Tabs
The Game 2 Tabs


Song lyrics



↑ Back to top | Tablatures and chords are parodies/interpretations of the original songs. You may use it for private study, scholarship, research or language learning purposes only
© 2014 AZChords.com Contact us | Privacy policy | DMCA | Add/correct tabs | Request tabs | Top 50 tabs