» » »

Drowning Pool, Bodies Bass tabs (ver.1)

Artists:  A B C D E F G H I J K L M N O P Q R S T U V W X Y Z # 

Bodies Bass tabs (ver.1)

Drowning Pool Tabs
 Rating:
3.5/5 (8 votes)
Bodies lessons Tabs too difficult? Try these video lessons and learn fast
                Band: Drowning Pool

Intro/Chorus
|-------------------------|
|-------------------------|
|-55-5---------55-5-------| 
|-------6-666--------6-666|

Verse
|----------------|
|----------------|
|----------------| 
|0--0-1-0---0-1-3|

Interlude (those are indeed tens)
|------------------|
|------------------|
|-5-5-6-6-8-8-10-10|
|------------------|

Pre-Chorus ("One . . nothing wrong with me" part)
|-------------------|    |----------------------------|
|-------------------|    |----------------------------|
|--------5--------3-|    |-------5--------------------|
|-0--0-0---0--0-0---|[3x]|0--0-0---0-0--0-0--0-0--0-0-|

Bridge ("Skin on your skin, bone on bone" part)
|-------------------------|    |------------------------|
|-------------------------|    |------------------------|
|-------------------------|    |------------------------|
|-3-6--3-3--5--0-0-000-0--|[3x]|-3-6--3-3-----3333-1111-|

Song Structure
Intro
Verse
Interlude
Pre-Chorus
Chorus
Verse
Interlude
Pre-Chorus
Chorus
Bridge
Pre-Chorus
Chorus
            
Submit corrections

comments powered by Disqus
↑ Back to top | Drowning Pool Bass for Bodies. Lyrics for acoustic guitar and electric guitar. Tablatures and chords are parodies/interpretations of the original songs. You may use it for private study, scholarship, research or language learning purposes only