>
 >
Acid Rain 1

Acid Rain 1 Guitar Tabs

D.R.I. - Acid Rain 1 chords, tabs, tablatures, lyrics

Guitar lessons | Add/correct | Request | Top 50 tabs Artists:  A B C D E F G H I J K L M N O P Q R S T U V W X Y Z 0-9

Acid Rain 1 Guitar Tabs – D.R.I.

CD, Sheet music, Poster

Do you like Acid Rain 1? Share with your friends now
Bass TabsTabsTabs v2






  pm......
|------------------------|
|------------------------|
|------------------------|
|-3----------------------|
|-3----------------------|
|-1--1-1-1--1-1-1--1-1-1-|


|------------------------------------------------------------------------|
|------------------------------------------------------------------------|
|-----------------------------------------4------------------------------|
|-3---------5-6--3-6/5-3-5-6-------3-3-3--4--4--4-3----------------------|
|-3---------5-6--3-6/5-3-5-6-------3-3-3--2--4--4-3----------------------|
|-1--1-1-1--3-4--1-4/3-1-3-4--0-1--1-1-1-----2--2-1--1-1-1--1-1-1--1-1-1-|


|--------------------------------------------------|
|--------------------------------------------------|
|---------------------6-5-4--4-4-4--4--4-4-4--5-9--|
|-3---------5---------6-5-4--4-4-4--4--4-4-4--5-9--|
|-3---------5---------4-3-2--2-2-2--2--2-2-2--3-7--|
|-1--1-1-1--3--0-0-0-------------------------------|

|--------------------------------------------------|
|--------------------------------------------------|
|---------------------6-5-4--4-4-4--4--4-4-4--4----|
|-----------5---------6-5-4--4-4-4--4--4-4-4--4----|
|-----------5---------4-3-2--2-2-2--2--2-2-2--2----|
|----0-0-0--3--0-0-0-------------------------------|


|------------------------------------------|
|------------------------------------------|
|------------------------------------------|
|-6---------5---------5/6---------5--5-5-5-|
|-6---------5---------5/6---------5--5-5-5-|
|-4--0-0-0--3--0-0-0--3/4--0-0-0--3--3-3-3-|


|------------------------------------------|
|------------------------------------------|
|------------------------------------------|
|-6---------5---------5/6---------5--5-5-5-|
|-6---------5---------5/6---------5--5-5-5-|
|-4--0-0-0--3--0-0-0--3/4--0-0-0--3--3-3-3-|


|------------------------------------------------------------------------|
|------------------------------------------------------------------------|
|-----------------------------------------4------------------------------|
|-3---------5-6--3-6/5-3-5-6-------3-3-3--4--4--4-3----------------------|
|-3---------5-6--3-6/5-3-5-6-------3-3-3--2--4--4-3----------------------|
|-1--1-1-1--3-4--1-4/3-1-3-4--0-1--1-1-1-----2--2-1--1-1-1--1-1-1--1-1-1-|


verse
|------------------------------------------------------------------------|
|------------------------------------------------------------------------|
|-----------------------------------------4------------------------------|
|-3---------5-6--3-6/5-3-5-6-------3-3-3--4--4--4-3----------------------|
|-3---------5-6--3-6/5-3-5-6-------3-3-3--2--4--4-3----------------------|
|-1--1-1-1--3-4--1-4/3-1-3-4--0-1--1-1-1-----2--2-1--1-1-1--1-1-1--1-1-1-|


|-------------------------------------|
|-------------------------------------|
|----------------------------4-3------|
|-3-3-3-3--4-4-4-4--3-3-3-3--4-3--3-4-|
|-3-3-3-3--4-4-4-4--3-3-3-3--2-1--3-4-|
|-1-1-1-1--2-2-2-2--1-1-1-1-------1-2-|


|-------------------------------------------------------------------|
|-------------------------------------------------------------------|
|-3-3-3-3-3-3-3--4-4--3-3-3-3-3-3-3-3-3-3--4-4-4-4-4-4-4-4--6--4--3-|
|-3-3-3-3-3-3-3--4-4--3-3-3-3-3-3-3-3-3-3--4-4-4-4-4-4-4-4--6--4--3-|
|-1-1-1-1-1-1-1--2-2--1-1-1-1-1-1-1-1-1-1--2-2-2-2-2-2-2-2--4--2--1-|
|-------------------------------------------------------------------|


|------------------------------------------------------------------|
|------------------------------------------------------------------|
|-3-3-3-3-3-3-3--4-4--3-3-3-3-3-3-3-3-3-3--4---4---4---4---6--4--3-|
|-3-3-3-3-3-3-3--4-4--3-3-3-3-3-3-3-3-3-3--4---4---4---4---6--4--3-|
|-1-1-1-1-1-1-1--2-2--1-1-1-1-1-1-1-1-1-1--2---2---2---2---4--2--1-|
|------------------------------------------------------------------|

|-------------------------------------|
|-------------------------------------|
|----------------------------4-3------|
|-3-3-3-3--4-4-4-4--3-3-3-3--4-3--3-4-|
|-3-3-3-3--4-4-4-4--3-3-3-3--2-1--3-4-|
|-1-1-1-1--2-2-2-2--1-1-1-1-------1-2-|


|-------------------------------------------------------------------|
|-------------------------------------------------------------------|
|-3-3-3-3-3-3-3--4-4--3-3-3-3-3-3-3-3-3-3--4-4-4-4-4-4-4-4--6--4--3-|
|-3-3-3-3-3-3-3--4-4--3-3-3-3-3-3-3-3-3-3--4-4-4-4-4-4-4-4--6--4--3-|
|-1-1-1-1-1-1-1--2-2--1-1-1-1-1-1-1-1-1-1--2-2-2-2-2-2-2-2--4--2--1-|
|-------------------------------------------------------------------|


|-------------------------------------------------------------------|
|-------------------------------------------------------------------|
|-3-3-3-3-3-3-3--4-4--3-3-3-3-3-3-3-3-3-3--4-4-4-4-4-4-4-4--6--4--3-|
|-3-3-3-3-3-3-3--4-4--3-3-3-3-3-3-3-3-3-3--4-4-4-4-4-4-4-4--6--4--3-|
|-1-1-1-1-1-1-1--2-2--1-1-1-1-1-1-1-1-1-1--2-2-2-2-2-2-2-2--4--2--1-|
|-------------------------------------------------------------------|


|-------------------------------------|
|-------------------------------------|
|----------------------------4-3------|
|-3-3-3-3--4-4-4-4--3-3-3-3--4-3--3-4-|
|-3-3-3-3--4-4-4-4--3-3-3-3--2-1--3-4-|
|-1-1-1-1--2-2-2-2--1-1-1-1-------1-2-|


|--------------------------------------------------|
|--------------------------------------------------|
|---------------------6-5-4--4-4-4--4--4-4-4--5-9--|
|-3---------5---------6-5-4--4-4-4--4--4-4-4--5-9--|
|-3---------5---------4-3-2--2-2-2--2--2-2-2--3-7--|
|-1--1-1-1--3--0-0-0-------------------------------|

|--------------------------------------------------|
|--------------------------------------------------|
|---------------------6-5-4--4-4-4--4--4-4-4--4----|
|-----------5---------6-5-4--4-4-4--4--4-4-4--4----|
|-----------5---------4-3-2--2-2-2--2--2-2-2--2----|
|----0-0-0--3--0-0-0-------------------------------|


|------------------------------------------|
|------------------------------------------|
|------------------------------------------|
|-6---------5---------5/6---------5--5-5-5-|
|-6---------5---------5/6---------5--5-5-5-|
|-4--0-0-0--3--0-0-0--3/4--0-0-0--3--3-3-3-|


|------------------------------------------|
|------------------------------------------|
|------------------------------------------|
|-6---------5---------5/6---------5--5-5-5-|
|-6---------5---------5/6---------5--5-5-5-|
|-4--0-0-0--3--0-0-0--3/4--0-0-0--3--3-3-3-|


  pm......
|------------------------|
|------------------------|
|------------------------|
|-3----------------------|
|-3----------------------|
|-1--1-1-1--1-1-1--1-1-1-|


|----------------------|
|----------------------|
|----------------------|
|-3--------------------|
|-3--------------------|
|-1--------------------|





Comments


Popular D.R.I. tabs & chords
Acid Rain Bass Tabs
Abduction Tabs
Abduction 1 Tabs
I'd Rather Be Sleeping 1 Tabs
Mad Man 1 Tabs
On My Way Home 1 Tabs
Stupid, Stupid War 1 Tabs
The Application 1 Tabs
The Explorer 1 Tabs
Violent Pacification Tabs


Song lyrics



↑ Back to top | Tablatures and chords are parodies/interpretations of the original songs. You may use it for private study, scholarship, research or language learning purposes only
© 2014 AZChords.com Contact us | Privacy policy | DMCA | Add/correct tabs | Request tabs | Top 50 tabs