>
 >
Acid Rain

Acid Rain Bass Tabs

D.R.I. - Acid Rain chords, tabs, tablatures, lyrics

Guitar lessons | Add/correct | Request | Top 50 tabs Artists:  A B C D E F G H I J K L M N O P Q R S T U V W X Y Z 0-9

Acid Rain Bass Tabs – D.R.I.

CD, Sheet music, Poster

Do you like Acid Rain? Share with your friends now
Bass TabsTabsTabs v2
G: ------------ |----------------|----------------|------------------|
D:.----rest----.|---er-qr--hr----|---hr-----------|---5--------------|
A:.------------.|----------------|---------5-7-7--|-----7-5-7----7-7-|
E: ------------ |0---------------|0---------------|0----------0------|

                              Fig. 1
|---------------------------| --------------------------|-------------------------|
|---------------------------|.--------------------------|-------------------------|
|--7--6-6-6--6--5--5--4--4--|.--------------------------|-------------------------|
|0--------------------------| 0---0-0-0-2--0--3--0-0-0--|3--2--0--2--0--3--0-0-0--|

                                                  2x   Fig. 2
|--------------------------|------------------------ | --------------------------|
|--------------------------|------------------------.|.--------------------------|
|----------1---------------|------------------------.|.7-------------------3--2--|
|0---0-0-0----0--1--0-0-0--|0---0--0--0-0-0--0-0-0-- | ---0-0-0--7--0-0-0--------|

                           4x  Fig. 3
|---------------------------- |------------------------|--------------------------|
|----------------------------.|------------------------|--------------------------|
|1---1-1-1--1--1-1-1--1-1-1--.|------------------2--3--|--------------------------|
|---------------------------- |3--0-0-0-2--0-0-0-------|3--0-0-0-2--2-2-2--2-2-2--|

                                                                  4x
|------------------------|---------------------------|--------------|
|------------------------|---------------------------|----Fig. 1----|
|------------------2--3--|---------------------------|--------------|
|3--0-0-0-2--0-0-0-------|0--0-0-0--0--0-0-0--0-0-0--|--------------|

  Fig. 4
| ----------------------|--------------------------|----------------------|
|.----------------------|--------------------------|----------------------|
|.----------------------|--------------------------|----------------------|
| 0---0-0-0--0--1---1---|0---0-0-0--0--3--2--1--5--|0---0-0-0--0--1---1---|

                         2x  Fig. 5
|-------------------------- |--------------------------------|
|--------------------------.|--------------------------------|
|--------------------------.|--------------------------------|
|0---0-0-0--0--3--2--1--2-- |5-5-5-5-5-5-5-5-5-5-5-5-5-6--3--|


|--------------------------------|--------------------------------|
|--------------------------------|--------------------------------|
|5h7-7-7-5h7-7-7-5h7-7-7-5h7-7-7-|--------------------------------|
|--------------------------------|6-6-6-6-6-6-6-6-6-6-6-6-6-8--6--|


|--------------------------------|------------------------------|
|--------7-7-7-7-5h7-7-7-5h7-7-7-|------------------------------|
|--------------------------------|------------------------------|
|5-5-5-5-------------------------|5-5-5-5-5-5-5-5-5-5-5-5-6--3--|


|--------------------------------|------------------------------|
|--------------------------------|------------------------------|
|----------------7-7-7-7-5h7-7-7-|------------------------------|
|5-5-5-5-5-5-5-5-----------------|6-6-6-6-6-6-6-6-6-6-6-6-8--6--|



|--------------------------------| ------------------------------|
|--------------------------------|.------------------------------|
|--------------------------------|.------------------------------|
|5-5-5-5-5-5-5-5-5-5-5-5-5-5-5-5-| 5-5-5-5-5-5-5-5-5-5-5-5-6--3--|


|--------------------------------|------------------------------------|
|--------------------------------|--sr-er----sr-er----sr-er-----------|
|--------------------------------|------------------------------------|
|5-5-5-5-5-5-5-5-5-5-5-5-5-5-5-5-|6--------6--------6--------6--8--6--|

                               2x              2x  Slight variation of Fig.
5
|-------------------------------- |--------------|------------------------------|
|--------------------------------.|----Fig. 4----|------------------------------|
|--------7-7-7-7-5h7-7-7-5h7-7-7-.|--------------|------------------------------|
|5-5-5-5------------------------- |--------------|5-5-5-5-5-5-5-5-5-5-5-5-6--3--|


|--------------------------------|------------------------------|
|--------------------------------|------------------------------|
|----------------7-7-7-7-5h7-7-7-|------------------------------|
|5-5-5-5-5-5-5-5-----------------|6-6-6-6-6-6-6-6-6-6-6-6-8--6--|


|--------------------------------|------------------------------|
|--------7-7-7-7-5h7-7-7-5h7-7-7-|------------------------------|
|--------------------------------|------------------------------|
|5-5-5-5-------------------------|5-5-5-5-5-5-5-5-5-5-5-5-6--3--|


|--------------------------------|------------------------------|
|--------------------------------|------------------------------|
|--------------------------------|------------------------------|
|5-5-5-5-5-5-5-5-5-5-5-5-5-5-5-5-|6-6-6-6-6-6-6-6-6-6-6-6-8--6--|


|----------------5---------------|------------------------------|
|--------7-7-7-7---7-7-7-5h7-7-7-|------------------------------|
|--------------------------------|------------------------------|
|5-5-5-5-------------------------|5-5-5-5-5-5-5-5-5-5-5-5-6--3--|


|--------------------------------|------------------------------|
|--------------------------------|------------------------------|
|--------------------------------|------------------------------|
|5-5-5-5-5-5-5-5-5-5-5-5-5-5-5-5-|6-6-6-6-6-6-6-6-6-6-6-6-8--6--|


|--------------------------------|------------------------------|
|--------------------------------|------------------------------|
|--------7-7-7-7-5h7-7-7-5h7-7-7-|------------------------------|
|5-5-5-5-------------------------|5-5-5-5-5-5-5-5-5-5-5-5-6--3--|


|--------------------------------|--------------------------------|
|--------------------------------|--------7-7-7-7-5h7-7-7-5h7-7-7-|
|--------------------------------|--------------------------------|
|5-5-5-5-5-5-5-5-5-5-5-5-5-5-5-5-|5-5-5-5-------------------------|

             4x             4x
     3x
|--------------|--------------|--------------| ------------------------------------ |
|----Fig. 4----|----Fig. 2----|----Fig. 3----|.--sr-er----sr-er----sr-er----sr-er--.|
|--------------|--------------|--------------|.------------------------------------.|
|--------------|--------------|--------------| 0--------0--------0--------0-------- |


|----------|--------------|------------|-------------------|-----|
|----------|-------9----9-|7----7-5----|-------------------|-----|
|----------|7----7--------|------------|5----7----7--------|-----|
|0--------0|--------------|------------|-------------------|0----|





Comments


Popular D.R.I. tabs & chords
Beneath The Wheel Bass Tabs
Busted Again 1 Tabs
Equal People 1 Tabs
Happy Happy Joy Joy Tabs
Mad Man 1 Tabs
Marriage 1 Tabs
Reaganomics 1 Tabs
Reagonomics 1 Tabs
Snap 1 Tabs
Yes Ma'am Tabs


Song lyrics



↑ Back to top | Tablatures and chords are parodies/interpretations of the original songs. You may use it for private study, scholarship, research or language learning purposes only
© 2014 AZChords.com Contact us | Privacy policy | DMCA | Add/correct tabs | Request tabs | Top 50 tabs