» » »

D.R.I., Abduction Tabs (ver.1)

Artists:  A B C D E F G H I J K L M N O P Q R S T U V W X Y Z # 

Abduction Tabs (ver.1)

D.R.I. Tabs
 Rating:
4/5 (4 votes)
Abduction lessons Tabs too difficult? Try these video lessons and learn fast
1
                -------------------------------------------------------------------------------
                             Abduction - DRI
-------------------------------------------------------------------------------


Tuning:standard

intro
e|-----------------------------|-----------------|--|------------------|
B|-----------------------------|-----------------|x3|------------------|x1
G|-----------------------------|-----------------|--|------------------|
D|-----------------------------|-2-------------3-|--|-2-------------2--|
A|-3-2---2-1---1-0---0---------|-2-----3---3---1-|--|-2-----3---3---2--|
E|-----2-----1-----1---1-3-2-1-|-0-0-0-1-0-1-0---|--|-0-0-0-1-0-1-0-0--|
                                   . .   .   .          . .   .   .
riff a
e|-------------------|
B|-------------------|
G|-------------------|
D|-2-----2---2---x/--|
A|-2---3-2---2---x/--|
E|-0---1-0---0---x/--|

verse
e|-------------------------------------------------------------------------|
B|-------------------------------------------------------------------------|
G|-------------------------------------------------------------------------|
D|-2-2-------------2-2-------------2-2-------------2-2---------------------|
A|-2-2-----3---3---2-2-----5---5---2-2-----3---3---2-2---------------------|
E|-0-0-0-0-1-0-1-0-0-0-0-0-3-0-3-0-0-0-0-0-1-0-1-0-0-0-0-0-0-0-0-0-0-0-0-0-|
       . .   .   .     . .   .   .     . .   .   .     . . . . . . . . . .

"abduction" riff
e|-----|-----------------------------------------------------------------|
B|-----|-----------------------------------------------------------------|
G|-----|-----------------------------------------------------------------|
D|-----|-2-----2-----2---------------------------------------------------|
A|-3-3-|-2-----2-----2---------------------5-----5-----5-----5-----4/3\4-|
E|-1-1-|-0-0-0-0-0-0-0-0-0-0-0-0-0-0-0-0-0-3-0-0-3-0-0-3-0-0-3-0-0-2/1\2-|
           . .   . .   . . . . . . . . . .   . .   . .   . .   . .

solo #1
e|--------| solo #2 just do a bunch of
B|--3+-tb-| slides on the sixth string
G|--------|
D|--------|
A|--------|
E|--------|

solo #3
e|-------------------------------------------------------------------------|
B|-------------------------------------------------------------------------|
G|----------------------------------------------------------------14----14-|
D|----------------------------------------12----12-14-16-17-16-17----17----|
A|----------------12----12-14-12-15-14-15----15----------------------------|
E|-12-14-15-14-15----15----------------------------------------------------|

e|----------------------------14----14-15-14-15-17-15-17-19-17-19-21b~--|
B|----------15----15-17-15-17----17-------------------------------------|
G|-16-14-16----16-------------------------------------------------------|
D|----------------------------------------------------------------------|
A|----------------------------------------------------------------------|
E|----------------------------------------------------------------------|

************************************

| tb  tremolo bend
| x/  pick slide
| .   palm mute
| /   slide up
| \   slide down
| h   hammer-on
| p   pull-off
| ~   vibrato
| +   harmonic
| x   Mute note
| b   Bend
| pb  Pre-bend
| br  Bend release
| pbr Pre-bend release
| brb Bend release bend

************************************
            
Submit corrections

comments powered by Disqus
↑ Back to top | D.R.I. Tabs for Abduction. Lyrics for acoustic guitar and electric guitar. 1 Tablatures and chords are parodies/interpretations of the original songs. You may use it for private study, scholarship, research or language learning purposes only