>
 >
Abduction 1

Abduction 1 Guitar Tabs

D.R.I. - Abduction 1 chords, tabs, tablatures, lyrics

Guitar lessons | Add/correct | Request | Top 50 tabs Artists:  A B C D E F G H I J K L M N O P Q R S T U V W X Y Z 0-9

Abduction 1 Guitar Tabs – D.R.I.

CD, Sheet music, Poster

Do you like Abduction 1? Share with your friends now
TabsTabs v2
                    Abduction-D.R.I

first tab i didnt get the solo..sorry


intro
e---------------------------------------------------------------------|
b---------------------------------------------------------------------|
g-----------------------------------------3---------------------------|
d--------------------------2--2-2-3-2-3-2-3 3x then-2-2-2-3-2-3-2-2---|
a-3-2--2-1--1-0--0---------2--2-2-3-2-3-2-1---------2-2-2-3-2-3-2-2---|
e----2----1-----1--1-3-2-1-0--0-0-1-0-1-0-----------0-0-0-1-0-1-0-0---|

e--------------------------------------------------------------------|
b--------------------------------------------------------------------|
g--------------------------------------------------------------------|
d-2----2-3-2---------------------------------------------------------|
a-2----2-3-2---------------------------------------------------------|
e-0----0-1-0---------------------------------------------------------|

chorus part also at begining of song
e-----------------------------------------------------------------------|
b-----------------------------------------------------------------------|
g-----------------------------------------------------------------------|
d-2-2-2-2-3-3-5-5-3-3-3-3-3-5-3-----------------------------------------|
a-2-2-2-2-3-3-5-5-3-3-3-3-3-5-3-----------------------------------------|
e-0-0-0-0-1-1-3-3-1-1-1-1-1-3-1-----------------------------------------|

verse
e-----------------------------------------------------------------------|
b-----------------------------------------------------------------------|
g---------------3-------------------------------------------------------|
d--2-14x--then--3-------------------------------------------------------|
a--2------------1-------------------------------------------------------|
e--0--------------------------------------------------------------------|
then back to chorus


ab-duc-tion
e---------------------------------------------------------------------|
b---------------------------------------------------------------------|
g-3-3-----------------------------------------------------------------|
d-3-3----2--16x-5-2-2-5-2-2-5-2-2-5-4-3-4-----------------------------|
a-1-1----2------5-2-2-5-2-2-5-2-2-5-4-3-4-----------------------------|
e--------0------3-0-0-3-0-0-3-0-0-3-2-1-2-----------------------------|
couple of times then


e----------------------------------------------------------------------|
b----------------------------------------------------------------------|
g----------------------------------------------------------------------|
d-2-2-2--3-2-2-2-2-----------------------------------------------------|
a-2-2-2--3-2-2-2-2-----------------------------------------------------|
e-0-0-0--1-0-0-0-0-----------------------------------------------------|





Comments


Popular D.R.I. tabs & chords
I'd Rather Be Sleeping Bass Tabs
Suit And Tie Guy Bass Tabs
Argument The War Tabs
I Don't Need Society 1 Tabs
Mad Man 1 Tabs
Nursing Home Blues 1 Tabs
Reaganomics Tabs
Reaganomics 1 Tabs
Slit My Wrist 1 Tabs
Think For Yourself Tabs


Song lyrics



↑ Back to top | Tablatures and chords are parodies/interpretations of the original songs. You may use it for private study, scholarship, research or language learning purposes only
© 2014 AZChords.com Contact us | Privacy policy | DMCA | Add/correct tabs | Request tabs | Top 50 tabs