>
 >
Now Or Never 1

Now Or Never 1 Guitar Tabs

Dope - Now Or Never 1 chords, tabs, tablatures, lyrics

Guitar lessons | Add/correct | Request | Top 50 tabs Artists:  A B C D E F G H I J K L M N O P Q R S T U V W X Y Z 0-9

Now Or Never 1 Guitar Tabs – Dope

CD, Sheet music, Poster

Do you like Now Or Never 1? Share with your friends now
ChordsTabsTabs v2Tabs v3Tabs v4Ukulele
Tuning: Drop C#

 
 
Intro:
   |--------------------|-------------------------------------|
   |--------------------|-------------------------------------|
Gtr|--------------------|-------------------------------------|
 1 |--------------------|----------------------7\-------------|
   |--------------------|--5h7--4h6--5h7--5h7--7\-------------|
   |--------------------|--5h7--4h6--5h7--5h7--7\-------------|
   |                                                          |     
   |                                                          |
   |--------------------|-------------------------------------|
   |--------------------|-------------------------------------|
Gtr|--------------------|-------------------------------------|
 2 |-5/7--5/7--5/7--5/7-|-------------------------------------|
   |--------------------|------------------7----5555577777----|
   |-5/7--5/7--5/7--5/7-|------------5------------------------|
                                              NH.......... 
                                                (slowly slid from 5 to 7)
 
Bridge 1:              (Repeat 3 Times)
   |-----------------------------------|----------------------------------------|
   |-----------------------------------|----------------------------------------|
Gtr|-----------------------------------|----------------------------------------|
1&2|-----------------------5/4---------|-----------------------5/4--------------|
   |-5h7--5h7--5h7--5h7----5/4-8-------|-5h7--5h7--5h7--5h7----5/4--(8)/X-------|
   |-5h7--5h7--5h7--5h7--------8-------|-5h7--5h7--5h7--5h7---------(8)/X-------|
                                                                         
                                                                                                                                       
   

Verse 1: Will be back to fix this within the week...
   (Part A)
   |-------------------------------------------|
   |-------------------------------------------|
   |-------------------------------------------|
   |-----------111-----------------------8/X---|
   |-0h1-0h2------333222444--------------8/X---|
   |-------------------------------------8/X---|
   PM              ............  
   
   (Part B)
   |-------------------------------------------|
   |-------------------------------------------|        
   |-------------------------------------------|
   |-------------------------------------------|
   |-------------------------------------------|
   |-------------------------------------------|



Pre-Chorus: Guitar 2 is actually Synth arranged for the 
            guitar.
   |-----------------------------|------------------------------------
   |-----------------------------|------------------------------------
Gtr|-----------------------------|------------------------------------
 1 |-----------------------------|---------------------7-7-7-7--------
   |---------------------7-7-7-7-|-5-5--5-5--5-5--5-5--5-5-5-5--------
   |-7-7--7-7--7-7--7-7--7-7-7-7-|------------------------------------
                                                           

    -----------------------------|------------------------------------|
    -----------------------------|------------------------------------|
    -----------------------------|------------------------------------|
    -----------------------------|------------------------------------|
    ---------------------5-5-5-5-|---------------------5-5-5-5--------|
    -5-5--5-5--5-5--5-5--5-5-5-5-|-2-2--2-2--5-5--5-5--5-5-5-5--------|
                                                                    

Fill 1:
   |-----------------------------|
   |-----------------------------|
Gtr|-----------------------------|
 1 |-5h7--5h7--5h7--5h7------8/--|
   |-------------------------8/--|
   |-------------------------8/--|


Chorus 1: This is repeated twice, except on the second
        guitar 1 and 2 play the same as guitar 1 during
        the first round.***
   |---------------------------|-----------------------------|------------------------- 
   |---------------------------|-----------------------------|-------------------------
Gtr|---------------------------|-----------------------------|-------------------------
 1 |---------------------5/4---|---------------------7/6-----|-7-7-7-7-7-7-7-7--7------
   |-5h7--5h7--5h7--5h7--5/4-8-|-7h9--7h9--7h9--7h9--7/6- 10-|-5-5-5-5-5-5-5-5--5------
   |-5h7--5h7--5h7--5h7------8-|-7h9--7h9--7h9--7h9------ 10-|-0-0-0-0-0-0-0-0--0------

    --------------------|
    --------------------|
    --6666-7777/8888----|
    --------------------|
    --4444-5555/6666----|
    --------------------|
   
    ***The first time the Chrous is played Gtr 2
       will play this on the second pass, however on 
       the second chorus, it is played on both passes.                        
    -------------------------|
    -------------------------|
    -------------------------|
    -------------------------|
    ------5555555-6666666----|
    -------------------------|
        NH....... .......


Bridge 2:
   |---------------------------|-----------------------------|------------------------- 
   |---------------------------|-----------------------------|-------------------------
Gtr|---------------------------|-----------------------------|-------------------------
 1 |---------------------5/4---|---------------------7/6-----|-7-7-7-7-7-7-7-7--7------
   |-5h7--5h7--5h7--5h7--5/4-8-|-7h9--7h9--7h9--7h9--7/6- 10-|-5-5-5-5-5-5-5-5--5------
   |-5h7--5h7--5h7--5h7------8-|-7h9--7h9--7h9--7h9------ 10-|-0-0-0-0-0-0-0-0--0------

    --------------------|
    --------------------|
    --6666-7777/8888----|
    --------------------|
    --4444-5555/6666----|
    --------------------|



Fill 2:                     
   |--------------------------=--|
   |-----------------------------|
Gtr|-----------------------------|
 1 |-------------------------8/--|
   |-5-7--5-7--5-7--5-7------8/--|
   |-5-7--5-7--5-7--5-7------8/--|
 PM  . .  . .  . .  . .    


Fill 4:
   |--------------------|
   |--------------------|
   |--------------------|
   |--------------------|
   |-5/7--5/7--5/7--5/7-|
   |-5/7--5/7--5/7--5/7-|


Bridge 2 & Outro:
   |---------------------------------|
   |---------------------------------|
Gtr|---------------------------------|
 1 |---------------------------------|
   |-5/7--5/7--5/7--5/7--5/(4)/8-----|
   |-5/7--5/7--5/7--5/7--5/(4)/8-----|
   |                                 |
   |---------------------------------|
   |---------------------------------|
Gtr|---------------------------------|
 2 |---------------------4-----------|
   |-5/7--5/7--5/7--5/7--------------|
   |-5/7--5/7--5/7--5/7--------8-----|
                          






Interlude:  You will repeat this twice.  The first time guitar 2 is fading in
            from the previous bar
   |-----------------------------|-----------------------------
   |-----------------------------|-----------------------------
Gtr|-----------------------------|-----------------------------
 1 |-----------------------------|-----------------------------
   |-----------------------------|-5-5--5-5--5-5--5-5--5-5-5-5-
   |-7-7--7-7--7-7--7-7--7-7-7-7-|-----------------------------


    -----------------------------|-----------------------------|
    -----------------------------|-----------------------------|
    -----------------------------|-----------------------------|
    -----------------------------|-----------------------------|
    -----------------------------|-----------------------------|
    -5-5--5-5--5-5--5-5--5-5-5-5-|-2-2--2-2--5-5--5-5--5-5-5-5-|





Comments


Popular Dope tabs & chords
Debonaire Bass Tabs
Fuck Tha Police Bass Tabs
You Spin Me Right Round 4 Bass Tabs
Debonaire Chords
Addiction Tabs
Bitch Tabs
Everything Sucks 2 Tabs
I Am Nothing Tabs
Intervention 1 Tabs
No Chance Tabs


Song lyrics



↑ Back to top | Tablatures and chords are parodies/interpretations of the original songs. You may use it for private study, scholarship, research or language learning purposes only
© 2014 AZChords.com Contact us | Privacy policy | DMCA | Add/correct tabs | Request tabs | Top 50 tabs