» » »

Dope, Now Or Never Tabs (ver.3)

Artists:  A B C D E F G H I J K L M N O P Q R S T U V W X Y Z # 

Now Or Never Tabs (ver.3)

Dope Tabs
Rating:
0/5 (0 votes)
Hard to play? Try these video lessons and learn fast.
                GUITARISTS: Acey Slade & Virus
TUNING: Drop C# ( C# G# C# F# A# D# )


INTRO RIFF (0:00/0:04)

|----------------------
|----------------------
|----------------------
|--5h7--5h7--5h7--5h7--
|----------------------
|--5h7--5h7--5h7--5h7-- x2

|----------------------
|----------------------
|----------------------
|--12-/-0--------------
|--12-/-0--------------
|--12-/-0--------------


MAIN RIFF (0:04/0:13)

|-----------------------------
|-----------------------------
|-----------------------------
|--5h7--5h7--5h7--5h7---0--8--
|--5h7--5h7--5h7--5h7---0--8--
|--5h7--5h7--5h7--5h7---0--8-- x4


VERSE (0:13/0:31)

|--------------------------------------------------
|--------------------------------------------------
|--------------------------------------------------
|--7-/-4p0---1-/-7--7-7-7-7-7-7-7-7-7-7-5-5-5-5-5--
|--7-/-4p0-----------------------------------------
|--7-/-4p0-----------------------------------------

|--------------------------------------------------
|--------------------------------------------------
|--------------------------------------------------
|--7-/-4p0-----------------------------------------
|--7-/-4p0---1-/-7--7-7-7-7-7-7-5-5-5-5-3-3-2-2-2--
|--7-/-4p0-----------------------------------------

|--------------------------------------------------
|--------------------------------------------------
|--------------------------------------------------
|--7-/-4p0---1-/-7--7-7-7-7-7-7-7-7-7-7-5-5-5-5-5--
|--7-/-4p0-----------------------------------------
|--7-/-4p0-----------------------------------------

|--------------------------------------------------
|--------------------------------------------------
|--------------------------------------------------
|--7-/-4p0---1-/-7--7-7-7-5-5-5-2-2-2--------------
|--7-/-4p0----------------------------5-5-5-3-3-2--
|--7-/-4p0-----------------------------------------


PRE-CHORUS 'RHYTHM' (0:31/0:49)

|------------------------------------------------------------------------
|------------------------------------------------------------------------
|------------------------------------------------------------------------
|--7-7--7-7--7-7--7-7--7-7-7-7--10-10--10-10--10-10--10-10--10-10-10-10--
|--7-7--7-7--7-7--7-7--7-7-7-7--10-10--10-10--10-10--10-10--10-10-10-10--
|--7-7--7-7--7-7--7-7--7-7-7-7--10-10--10-10--10-10--10-10--10-10-10-10--

|---------------------------------------------------
|---------------------------------------------------
|---------------------------------------------------
|--5-5--5-5--5-5--5-5--5-5-5-5--2-2--2-2--2-2--2-5--
|--5-5--5-5--5-5--5-5--5-5-5-5--2-2--2-2--2-2--2-5--
|--5-5--5-5--5-5--5-5--5-5-5-5--2-2--2-2--2-2--2-5--

PRE-CHORUS 'LEAD' (0:31/0:49)

|-------------------------------------------------------------------------------------
|--10-10--10-10--10-10--10-10--10-10-10-10---13-13--13-13--13-13--13-13--17-17-17-17--
|---x--x---x--x---x--x---x--x---x--x--x--x----x--x---x--x---x--x---x--x---x--x--x--x--
|---7--7---7--7---7--7---7--7---7--7--7--7---10-10--10-10--10-10--10-10--14-14-14-14--
|-------------------------------------------------------------------------------------
|-------------------------------------------------------------------------------------

|--------------------------------------------------------
|--15-15--15-15--15-15--15-15--12-12-12-12---8--8--8--8--
|---x--x---x--x---x--x---x--x---x--x--x--x---x--x--x--x--
|--12-12--12-12--12-12--12-12---9--9--9--9---5--5--5--5--
|--------------------------------------------------------
|--------------------------------------------------------


CHORUS (0:49/1:09)

|-------------------------------
|-------------------------------
|-------------------------------
|--5h7--5h7--5h7--5h7---12-/-0--
|-----------------------12-/-0--
|--5h7--5h7--5h7--5h7---12-/-0--

|--------------------------------------------------------------------------------------------------
|--------------------------------------------------------------------------------------------------
|--------------------------------------------------------------------------------------------------
|--5-7--5-7--5-7--5-7---5--7-----0-3--0-3--0-3--0-3---0--3-----7-7--7-7--7-7--7-7---7--7-----------
|--5-7--5-7--5-7--5-7---5--7-----0-3--0-3--0-3--0-3---0--3-----5-5--5-5--5-5--5-5---5--5-----5--6--
|--5-7--5-7--5-7--5-7---5--7-----0-3--0-3--0-3--0-3---0--3-----0-0--0-0--0-0--0-0---0--0-----5--6-- x2


VERSE (1:09/1:27)

|--------------------------------------------------
|--------------------------------------------------
|--------------------------------------------------
|--7-/-4p0---1-/-7--7-7-7-7-7-7-7-7-7-7-5-5-5-5-5--
|--7-/-4p0-----------------------------------------
|--7-/-4p0-----------------------------------------

|--------------------------------------------------
|--------------------------------------------------
|--------------------------------------------------
|--7-/-4p0-----------------------------------------
|--7-/-4p0---1-/-7--7-7-7-7-7-7-5-5-5-5-3-3-2-2-2--
|--7-/-4p0-----------------------------------------

|--------------------------------------------------
|--------------------------------------------------
|--------------------------------------------------
|--7-/-4p0---1-/-7--7-7-7-7-7-7-7-7-7-7-5-5-5-5-5--
|--7-/-4p0-----------------------------------------
|--7-/-4p0-----------------------------------------

|--------------------------------------------------
|--------------------------------------------------
|--------------------------------------------------
|--7-/-4p0---1-/-7--7-7-7-5-5-5-2-2-2--------------
|--7-/-4p0----------------------------5-5-5-3-3-2--
|--7-/-4p0-----------------------------------------


PRE-CHORUS 'RHYTHM' (1:27/1:45)

|------------------------------------------------------------------------
|------------------------------------------------------------------------
|------------------------------------------------------------------------
|--7-7--7-7--7-7--7-7--7-7-7-7--10-10--10-10--10-10--10-10--10-10-10-10--
|--7-7--7-7--7-7--7-7--7-7-7-7--10-10--10-10--10-10--10-10--10-10-10-10--
|--7-7--7-7--7-7--7-7--7-7-7-7--10-10--10-10--10-10--10-10--10-10-10-10--

|---------------------------------------------------
|---------------------------------------------------
|---------------------------------------------------
|--5-5--5-5--5-5--5-5--5-5-5-5--2-2--2-2--2-2--2-5--
|--5-5--5-5--5-5--5-5--5-5-5-5--2-2--2-2--2-2--2-5--
|--5-5--5-5--5-5--5-5--5-5-5-5--2-2--2-2--2-2--2-5--

PRE-CHORUS 'LEAD' (1:27/1:45)

|-------------------------------------------------------------------------------------
|--10-10--10-10--10-10--10-10--10-10-10-10---13-13--13-13--13-13--13-13--17-17-17-17--
|---x--x---x--x---x--x---x--x---x--x--x--x----x--x---x--x---x--x---x--x---x--x--x--x--
|---7--7---7--7---7--7---7--7---7--7--7--7---10-10--10-10--10-10--10-10--14-14-14-14--
|-------------------------------------------------------------------------------------
|-------------------------------------------------------------------------------------

|--------------------------------------------------------
|--15-15--15-15--15-15--15-15--12-12-12-12---8--8--8--8--
|---x--x---x--x---x--x---x--x---x--x--x--x---x--x--x--x--
|--12-12--12-12--12-12--12-12---9--9--9--9---5--5--5--5--
|--------------------------------------------------------
|--------------------------------------------------------


CHORUS (1:45/2:03)

|--------------------------------------------------------------------------------------------------
|--------------------------------------------------------------------------------------------------
|--------------------------------------------------------------------------------------------------
|--5-7--5-7--5-7--5-7---5--7-----0-3--0-3--0-3--0-3---0--3-----7-7--7-7--7-7--7-7---7--7-----------
|--5-7--5-7--5-7--5-7---5--7-----0-3--0-3--0-3--0-3---0--3-----5-5--5-5--5-5--5-5---5--5-----5--6--
|--5-7--5-7--5-7--5-7---5--7-----0-3--0-3--0-3--0-3---0--3-----0-0--0-0--0-0--0-0---0--0-----5--6-- x2


FILL 'RHYTHM' (2:03/2:21)

|----------------------------
|----------------------------
|----------------------------
|--5h7--5h7--5h7--5h7---0-8--
|--5h7--5h7--5h7--5h7---0-8--
|--5h7--5h7--5h7--5h7---0-8--

FILL 'LEAD' (2:03/2:21)

|-------------------------------
|-------------------------------
|-------------------------------
|--5h7--5h7--5h7----------------
|--5h7--5h7--5h7---(7)---(5)----
|--5h7--5h7--5h7----------------


BREAK (2:21/2:41)

|------------------------------------------------------------------
|------------------------------------------------------------------
|------------------------------------------------------------------
|------------------------------------------------------------------
|------------------------------------------------------------------
|--7-7--7-7--7-7--7-7--7-7------10-10--10-10--10-10--10-10--10-10--
   . .  . .  . .  . .  . .       .  .   .  .   .  .   .  .   .  .

|---------------------------------------------------
|---------------------------------------------------
|---------------------------------------------------
|---------------------------------------------------
|---------------------------------------------------
|--5-5--5-5--5-5--5-5--5-5------3-3--3-3--5-5--5-5--
   . .  . .  . .  . .  . .      . .  . .  . .  . .

|-------------------------------
|-------------------------------
|-------------------------------
|--5h7--5h7--5h7--5h7---12-/-0--
|-----------------------12-/-0--
|--5h7--5h7--5h7--5h7---12-/-0--


CHORUS (2:41/3:17)

|--------------------------------------------------------------------------------------------------
|--------------------------------------------------------------------------------------------------
|--------------------------------------------------------------------------------------------------
|--5-7--5-7--5-7--5-7---5--7-----0-3--0-3--0-3--0-3---0--3-----7-7--7-7--7-7--7-7---7--7-----------
|--5-7--5-7--5-7--5-7---5--7-----0-3--0-3--0-3--0-3---0--3-----5-5--5-5--5-5--5-5---5--5-----5--6--
|--5-7--5-7--5-7--5-7---5--7-----0-3--0-3--0-3--0-3---0--3-----0-0--0-0--0-0--0-0---0--0-----5--6-- x4


OUTRO 'RHYTHM' (3:17/3:25)

|----------------------------
|----------------------------
|----------------------------
|--5h7--5h7--5h7--5h7---0-8--
|--5h7--5h7--5h7--5h7---0-8--
|--5h7--5h7--5h7--5h7---0-8-- x3

OUTRO 'LEAD' (3:17/3:25)

|-------------------------------
|-------------------------------
|-------------------------------
|--5h7--5h7--5h7----------------
|--5h7--5h7--5h7---(7)---(5)----
|--5h7--5h7--5h7---------------- x3




h  = Hammer On
p  = Pull Off
/  = Slide
() = Natural Harmonic
.  = Palm Mute
x  = String Mute
            

comments powered by Disqus
↑ Back to top | Dope Tabs for Now Or Never. Lyrics for acoustic guitar and electric guitar. Tablatures and chords are parodies/interpretations of the original songs. You may use it for private study, scholarship, research or language learning purposes only