» » »

Dope, Easier Tabs (ver.2)

Artists:  A B C D E F G H I J K L M N O P Q R S T U V W X Y Z # 

Easier Tabs (ver.2)

Dope Tabs
Rating:
1/5 (1 vote)
Easier lessons Tabs too difficult? Try these video lessons and learn fast
                Intro
E|-------------------------------------||
B|-------------------------------------||
G|-------------------------------------||
D|---4-----2---3------4-----2--3-------||
A|---4-----2---3------4-----2--3-------||
E|-2-2-2-0-0---1--0-2-2-2-0-0--1-------||

then the drums kick in and the verse which has two parts to it
goes as followed.

E|-------------4-------------------------||
B|--------------0-------4----------------||
G|-----------------------0---------------||
D|---4-----2-----------------------------||
A|---4-----2-----------------------------||
E|-2-2-2-0-0-0----0h1h2------------------||
Would it make things easier if i were gone

E|-------------------------------------||
B|-------------------------------------||
G|-------------------------------------||
D|---4-----2----3-3-----3--------------||
A|---4-----2----3-3-----3--------------||
E|-2-2-2-0-0-0--1-1-0h1-1-0------------||
Would it make things right if i were never wrong
Would it make things easier if i were gone

E|------------------||
B|------------------||
G|------------------||
D|---2-----2--------||
A|---2-----2--------||
E|-2-4-2-0-0-0------||
Would it make things easier

Chorus kinda
E|-------------------------------------------------------------------------------||
B|-------------------------------------------------------------------------------||
G|---4-----4---2-----2---4-----4---2---2---4-----4---2-----2---4-----4---2---2---||
D|---4-----4---2-----2---4-----4---2---2---4-----4---2-----2---4-----4---2---2---||
A|---2-----2---0-----0---2-----2---0---0---2-----2---0-----0---2-----2---0---0---||
E|-0---0-2---0---0-0---0---0-2---0---0---0---0-2---0---0-0---0---0-2---0---0---0-||
All the times you took for granted that I waited here for you
I was on another planet, I was waiting there for you

now go back to the verse above and do that except with these lyrics

She said Would it make things easier if i were gone

Would it make things right if i were never wrong
Would it make you happy when you sing your song
Would it make things easier

then do the chorus again but these lyrics

I was blind and I was faded and I didn't have a clue
I was always into something that I always had to do

then back to the verse but this time just do this riff with these lyrics
E|-------------------------------------||
B|-------------------------------------||
G|-------------------------------------||
D|---4-----2----3-3-----3--------------||
A|---4-----2----3-3-----3--------------||
E|-2-2-2-0-0-0--1-1-0h1-1-0------------||
He said
Would it make things easier if I were gone
Would it make things right if I was never wrong
Would it make you happier to move along
Would it make things easier

alright now back to the chorus and these lyrics

All the awful things we say, all the stupid games we play
Every night and everyday, I don't know what else to...

E|------------------||
B|------------------||
G|-4-4-4-4-4--3-----||
D|-4-4-4-4-4--3-----||
A|-2-2-2-2-2--1-----||
E|------------------||
  saaaaaaaay...
 back to the verse with these lyrics now and do both parts

Would it make things easier if I were gone
Would it make things right if I was never wrong
Would it make you happier to be alone
Would it make things...

E|------------------||
B|------------------||
G|-4-4-4-4-4--3-----||
D|-4-4-4-4-4--3-----||
A|-2-2-2-2-2--1-----||
E|------------------||
   eaaaaasier...

E|-------------------------------------||
B|-------------------------------------||
G|-------------------------------------||
D|---4-----2----3-3-----3--------------||
A|---4-----2----3-3-----3--------------||
E|-2-2-2-0-0-0--1-1-0h1-1-0------------||
Would it make things easier if I were gone
Would it make you happier to be alone
Would it make things right if I was never wrong
Would it make things easier

E|------------------||
B|------------------||
G|------------------||
D|---2-----2--------||
A|---2-----2--------||
E|-2-4-2-0-0-0------||
Would it make things easier
            
Submit corrections

comments powered by Disqus
↑ Back to top | Dope Tabs for Easier. Lyrics for acoustic guitar and electric guitar. Tablatures and chords are parodies/interpretations of the original songs. You may use it for private study, scholarship, research or language learning purposes only