» » »

Dope, Easier Tabs (ver.1)

Artists:  A B C D E F G H I J K L M N O P Q R S T U V W X Y Z # 

Easier Tabs (ver.1)

Dope Tabs
Rating:
4/5 (4 votes)
Easier lessons Tabs too difficult? Try these video lessons and learn fast
                Dope: Easier


Listen for the clicks. I might not have them tabbed exactly right.

Intro: 2x

E---------------------|
B---------------------|
G---------------------|
D-11-11-X-X-9-9-X-----|
A--9-9--X-X-7-7-X-9~--|
E-----------------7~--|

1st Verse:

E------------------------------------------------|
B------------------------------------------------|
G------------------------------------------------|
D-11-11-X-X-9-9-X--------------------------------|
A--9-9--X-X-7-7-X-9~-9-9-9-7-7-7-7-7-X-X---------|
E-----------------7~-7-7-7-5-5-5-5-5-X-X—--|

2nd Verse:

E-----------------------------------|
B-----------------------------------|
G-----------------------------------|
D-11-11-11-11-11-11-9-9-9-9-9-9-9-9-|
A-9--9--9--9--9--9--7-7-7-7-7-7-7-7-|
E-----------------------------------|

 2nd Verse Continued

E--------------------------------------|
B--------------------------------------|
G--------------------------------------|
D-11-11-11-11-11-11-14-14-14-13-13-13--|
A-9--9--9--9--9--9--12-12-12-11-11-11--|
E--------------------------------------|

Play the 2nd verse 2x on the 3rd time end on:

E-----
B-----
G-----
D-11~-
A-9-~-
E-----

Pre-chorus Riff:

E------------------------------------------|
B------------------------------------------|
G------------------------------------------|
D-11-11-X-X-9-9-X--------------------------|
A-9--9--X-X-7-7-X-9~-9-9-9-9-9-9-9---------|
E-----------------7~-7-7-7-7-7-7-7—--|

Play 2nd verse riff again 2x on 3rd time play:

E---------------------------------|
B---------------------------------|
G---------------------------------|
D-11-11-11-11-11-11-11-9~---------|
A-9--9--9--9--9--9--9—-7~---|
E---------------------------------|

That’s the whole song. Just put everything in order.
            

comments powered by Disqus
↑ Back to top | Dope Tabs for Easier. Lyrics for acoustic guitar and electric guitar. Tablatures and chords are parodies/interpretations of the original songs. You may use it for private study, scholarship, research or language learning purposes only