» » »

Doobie Brothers, Nobody Tabs (ver.1)

Artists:  A B C D E F G H I J K L M N O P Q R S T U V W X Y Z # 

Nobody Tabs (ver.1)

Doobie Brothers Tabs
 Rating:
4/5 (4 votes)
Nobody lessons Tabs too difficult? Try these video lessons and learn fast
                The Doobie Brothers
"Nobody"

I couldn't find a tab for this song anywhere, I figured I'd take a shot at it. This is
my first tab. It's not 100% complete, but whats here sounds spot on to me. The band
re-did this song in their "World Gone Crazy" album. They added a much longer intro, but 
I've never played slide guitar and don't feel comfortable tabbing it. Missing the solo 
as well.
Any corrections/additions will be an*lyzed and added (if valid). Hopefully you read this 
before commenting something stupid. =D


Intro:

|--------------0h1p0-------------------0h1p0------|
|----------3---3-----3-------------3---3-----3----|
|--0h2---2---2---------2---------0---0---------0--|
|--0----------------------------------------------|
|--------------------------0h3--------------------|
|-------------------------------------------------|

|--------------0h1p0-------------------0h1p0------|
|----------3---3-----3-------------3---3-----3----|
|--------0---0---------0---------0---0---------0--|o
|-------------------------------------------------|o
|--0h2-----------------------0h1------------------|
|-------------------------------------------------|

Chord Progression:

  D Cadd9 G  Dm7 D6sus4(?)
 / \ / \ / \ / \ / \
| 2 | 3 | 3 | 5 | 7 |
| 3 | 3 | 3 | 6 | 8 |
| 2 | 0 | 0 | 5 | 7 |
| 0 | 2 | 0 | 0 | 0 |
| X | 3 | 2 | X | X |
| X | X | 3 | X | X |
Listen to the song to get the strumming pattern and rhythm.

Lyrics:

Evil ways of practice may surround you
Callin' on your inner core of life
But your father was just a complex man of bus'ness
And your mother merely portioned out your fright
But run the risk of a sudden loss
You got no mama to bear your cross beside you
Uh huh, uh huh
As midnight angels shine their wings
And time begins just bo build a wall around you
Nobody, nobody gonna take my love away from me
Nobody, nobody gonna take my love away from me

Settin' out on a voyage down to Jenner
I've given all I've got to help the cause
Need a place just to settle out my pressures
A place where you and I can sit and pause
So I can see the sky at night
Without a fear of hidden light to blind me
Mm, mm
And so you see the path is clear
And changes will be swayed around me

Nobody, nobody gonna take my love away from me
Nobody, nobody gonna take my love away from me
            
Submit corrections

comments powered by Disqus
↑ Back to top | Doobie Brothers Tabs for Nobody. Lyrics for acoustic guitar and electric guitar. Tablatures and chords are parodies/interpretations of the original songs. You may use it for private study, scholarship, research or language learning purposes only