» » »

Doobie Brothers, I Been Workin' On You Tabs (ver.1)

Artists:  A B C D E F G H I J K L M N O P Q R S T U V W X Y Z # 

I Been Workin' On You Tabs (ver.1)

Doobie Brothers Tabs
 Rating:
4/5 (4 votes)
I Been Workin' On You lessons Tabs too difficult? Try these video lessons and learn fast
                
This song is a really catchy number, and I was just jammin' while listening to it when I
to figure out the song. I got the main riff of the song and the chorus stuff, but I
tab out the solo yet. The lack of Doobie tabs has encouraged me to try and tab stuff, so 
more songs in the future. Anyways, Heres the intro riff, just play along with the
to get the gist of it:

|------------0-----0-------------0-----0-------------0-----0----|
|--------------3b5-----------------3b5-----------------3b5------|
|---------------------------------------------------------------|
|---------------------------------------------------------------|
|-----5-4-2---------------5-4-2---------------5-4-2-------------|
|-x-x-3-2-0-----------x-x-3-2-0-----------x-x-3-2-0-------------|


|-------------------|
|-------------------|
|-------------------|
|-------------------|
|-----5-4--7-5-2----|
|-x-x-3-2--5-3-0----|

Now slide up from that last power chord up to the first one here during the chorus:

|--------------------------------------------------------------------------|
|-----------------------------------------------------8-8-8-8-8--8-8-8-8-8-|
|-----------------------------------------------------7-7-7-7-7--7-7-7-7-7-|
|-----------------------------------------------------9-9-9-9-9--9-9-9-9-9-|
|-10-10-12-10--10-10-12-10--12-12-14-12--12-12-14-12--7-7-7-7-7--7-7-7-7-7-|
|--8--8--8--8---8--8--8--8--10-10-10-10--10-10-10-10-----------------------|

|--------------------------------------------------------------------------|
|-----------------------------------------------------8-8-8-8-8--7-7-7-----|
|-----------------------------------------------------7-7-7-7-7--7-7-7-----|
|-----------------------------------------------------9-9-9-9-9--7-7-7-----|
|-10-10-12-10--10-10-12-10--12-12-14-12--12-12-14-12--7-7-7-7-7--7-7-7-----|
|--8--8--8--8---8--8--8--8--10-10-10-10--10-10-10-10-----------------------|

Hope this tab helps! Its not 100% accurate rhythm wise (I didnt tab every note) but if
look at what I've given you and play along to the song you'll pick up on the right way to
it in no time. Enjoy!
            
Submit corrections

comments powered by Disqus
↑ Back to top | Doobie Brothers Tabs for I Been Workin' On You. Lyrics for acoustic guitar and electric guitar. Tablatures and chords are parodies/interpretations of the original songs. You may use it for private study, scholarship, research or language learning purposes only