» » »

Doobie Brothers, Down In The Track Bass tabs (ver.1)

Artists:  A B C D E F G H I J K L M N O P Q R S T U V W X Y Z # 

Down In The Track Bass tabs (ver.1)

Doobie Brothers Tabs
Rating:
0/5 (0 votes)
Down In The Track lessons Tabs too difficult? Try these video lessons and learn fast
                
Tuning: EADG   Timing: 4/4

  Intro 4x
G--------------------|---|
D--------------------|---|
A--3---------3---567-|-3-|
E----5--3-5----5-----|---|

  Verse: 6x
G-----------------------------------|
D-----------------------------------|
A---------------------------------3-|
E--5-5-0-3-0-5-5-0-3-0-5-5-0-3-0-5--|

  Chorus:
G------------------------------------------------|
D---------------------------------------------7--|
A--2-3-4-5-6-777777777777777-5-7777777777777-5---|
E------------------------------------------------|

G-------------------975--75--5------------------|
D--------------------------7--75-75--5----------|
A--777777777777777-5---------------7--75-7/3----|
E--------------------------------------------5--|

 Verse: 6x
G-----------------------------------|
D-----------------------------------|
A---------------------------------3-|
E--5-5-0-3-0-5-5-0-3-0-5-5-0-3-0-5--|

  Chorus:
G------------------------------------------------|
D---------------------------------------------7--|
A--2-3-4-5-6-777777777777777-5-7777777777777-5---|
E------------------------------------------------|

G-------------------975--75--5------------------|
D--------------------------7--75-75--5----------|
A--777777777777777-5---------------7--75-7/3----|
E--------------------------------------------5--|

 Verse 6x
G-----------------------------------|
D-----------------------------------|
A---------------------------------3-|
E--5-5-0-3-0-5-5-0-3-0-5-5-0-3-0-5--|

 Bridge:
G-----------------------------------------------------|
D-----------------------------------------------------|
A--555555555555-7/3-------------------------------3---|
E------------------5-5-0-3-0-5-5-0-3-0-5-5-0-3-0-5----|

G------------------------------------|
D------------------------------------|
A----------------------------------3-|
E--5-5-0-3-0-5-5-0-3-0-5-5-0-3-0-5---|

  Chorus:
G------------------------------------------------|
D--------------------------------------------7---|
A---2-2-5-6-777777777777777-5-7777777777777-5----|
E------------------------------------------------|

G-------------------975--75--5------------------|
D--------------------------7--75-75--5----------|
A--777777777777777-5---------------7--75-7/3----|
E--------------------------------------------5--|

  2x
G------------------------------------|
D------------------------------------|
A----------------------------------3-|
E--5-5-0-3-0-5-5-0-3-0-5-5-0-3-0-5---|

  2nd Bridge: 4x
G-----------------|-----|
D-----------------|-----|
A---355555-533333-|-----|
E--5------5-------|-3/5-|

  6x
G------------------|
D------------------|
A---------------5--|
E--5555555555555---|

  Lead (Verse): 6x
G------------------------------------|
D------------------------------------|
A----------------------------------3-|
E--5-5-0-3-0-5-5-0-3-0-5-5-0-3-0-5---|

Bridge:
G------------------------------------------------------|
D------------------------------------------------------|
A--/555555555555-7/3-------------------------------3---|
E-------------------5-5-0-3-0-5-5-0-3-0-5-5-0-3-0-5----|

G------------------------------------|
D------------------------------------|
A----------------------------------3-|
E--5-5-0-3-0-5-5-0-3-0-5-5-0-3-0-5---|

  Chorus:
G------------------------------------------------|
D---------------------------------------------7--|
A--2-3-4-5-6-777777777777777-5-7777777777777-5---|
E------------------------------------------------|

G--------------------9757-5----------|
D--------------------------75--------|
A--777777777777777-55---------7/3-5--|
E----------------------------------3-|

G------------------------------------|
D------------------------------------|
A----------------------------------3-|
E--5-5-0-3-0-5-5-0-3-0-5-5-0-3-0-5---|

G------------------------------------------------------|
D------------------------------------------------------|
A----------------------------------33333333333333333---|
E--5-5-0-3-0-5-5-0-3-0-5-5-0-3-0-5------------------5--|
            

comments powered by Disqus
↑ Back to top | Doobie Brothers Bass for Down In The Track. Lyrics for acoustic guitar and electric guitar. Tablatures and chords are parodies/interpretations of the original songs. You may use it for private study, scholarship, research or language learning purposes only