>
 >
Tangerine Puppet 1

Tangerine Puppet 1 Guitar Tabs

Donovan - Tangerine Puppet 1 chords, tabs, tablatures, lyrics

Guitar lessons | Add/correct | Request | Top 50 tabs Artists:  A B C D E F G H I J K L M N O P Q R S T U V W X Y Z 0-9

Tangerine Puppet 1 Guitar Tabs – Donovan

CD, Sheet music, Poster

Do you like Tangerine Puppet 1? Share with your friends now
TabsTabs v2
NOTE: This is very similar to the other tab except for the E7 bit at the end of 
Fig.2. The difference being, mine's accurate (buffs nails)

 Capo 3 (C minor)


|0^------------------------------|
|0^------------------------------|
|5^------------------------------|
|7^------------------------------|
|0^------------------------------|
|--------------------------------|

  Fig.1

|0-------------------------------|0-------------------------------|
|----------0-------0-------0-----|----------0-----0---------------|
|------5-------5-------5---------|------5-------------1---2-------|
|----7-------7-------7-------7---|----7-------7---------------2---|
|0-------0-------0-------0-------|0-------0-----------2---0-------|
|--------------------------------|----------------0---------------|

 Fig.2

|0-------------------------------|0-------------------------------|
|----------3-------3-------3-----|----------1-----0h1-------1-----|
|------0h2-----0h2-----0h2-------|------2---------------2---------|
|----3-------3-------3-------3---|----2-------2-------2-------2---|
|0-------0-------0-------0-------|0-------0-------0-------0-------|
|--------------------------------|--------------------------------|

|0-------------------------------|0---------------0---------------|
|----------3-------3-------3-----|----------0-------------3-------|
|------0h2-----0h2-----0h2-------|------0h1-----------------------|
|----3-------3-------3-------3---|----0-------0-------0-------0---|
|0-------0-------0-------0-------|0h2-----2-------2-------2-------|
|--------------------------------|--------------------------------|

 Fig.3

|0-------------------------------|8---------7-----0---------------|
|----------0-------0-------0-----|--------------------------------|
|------5-------5-------5---------|------5-------------1---2-------|
|----7-------7-------7-------7---|----7-------7---------------2---|
|0-------0-------0-------0-------|0-------0-----------2---0-------|
|--------------------------------|----------------0---------------|

 Ending

|0--------------------------------|0---------------0---------------|
|----------0-------0-------0------|----------0---------------------|
|------5-------5-------5----------|------5-----------------2-------|
|----7-------7-------7-------7----|----7-------7-------------------|
|0-------0-------0-------0--------|0-------0-----------2---0-------|
|---------------------------------|----------------0---------------|

|0^------------------------------|
|0^------------------------------|
|5^------------------------------|
|7^------------------------------|
|0^------------------------------|
|--------------------------------|





Comments


Popular Donovan tabs & chords
Catch The Wind 2 Chords
Celeste Chords
Colours 2 Chords
Happiness Runs Chords
London Town Chords
Mellow Yellow 2 Chords
Sand And Foam Chords
Under The Greenwood Tree Chords
Epistle To Dippy 1 Tabs
The Ballad Of A Crystal Man Ukulele


Song lyrics



↑ Back to top | Tablatures and chords are parodies/interpretations of the original songs. You may use it for private study, scholarship, research or language learning purposes only
© 2014 AZChords.com Contact us | Privacy policy | DMCA | Add/correct tabs | Request tabs | Top 50 tabs