>
 >
Sunshine Superman 2

Sunshine Superman 2 Guitar Tabs

Donovan - Sunshine Superman 2 chords, tabs, tablatures, lyrics

Guitar lessons | Add/correct | Request | Top 50 tabs Artists:  A B C D E F G H I J K L M N O P Q R S T U V W X Y Z 0-9

Sunshine Superman 2 Guitar Tabs – Donovan

CD, Sheet music, Poster

Do you like Sunshine Superman 2? Share with your friends now
ChordsChords v2Chords v3Chords v4Chords v5TabsTabs v2Ukulele
               Sunshine Superman  ( Donovan)


Electric guitar (solo)
     Q    Q    E  E  E  E     Q    Q    E  E  E  E     Q    Q    E  E  E  E
E||------------------------|------------------------|------------------------|
B||------------------------|------------------------|------------------------|
G||------------------------|------------------------|------------------------|
D||---------------------2--|--L---------------------|---------------------2--|
A||--4----4-------2--L-----|-------4----2--4-----2--|--4----4-------2--L-----|
E||------------4-----------|------------------------|------------4-----------|


  Q    Q    E  E  E  E     Q     Q      Q      Q       Q     Q     E  E  E  E
------------------------|--------9------------------|--------------------------|
------------------------|-------12b-----Lpb---------|-----------------9--L-----|
------------------------|---------------------------|-------------10-----------|
--L---------------------|---------------------------|-------11-----------------|
-------4----2--4-----2--|---------------------------|--------------------------|
------------------------|---------------------------|--------------------------|


  Q     Q      Q      Q       Q     Q     E  E  E  E
--------9------------------|--------------------------|
-------12b-----Lpb---------|-----------------9--L-----|
---------------------------|-------------10-----------|
---------------------------|-------11-----------------|
---------------------------|--------------------------|
---------------------------|--------------------------|


    Q     Q      Q      Q       Q     Q     E  E  E  E
|---------9------------------|--------------------------|
|--------12b-----Lpb---------|-----------------9--L-----|
|*---------------------------|-------------10-----------|
|*---------------------------|-------11-----------------|
|----------------------------|--------------------------|
|----------------------------|--------------------------|


  Q     Q      Q      Q       Q     Q     E  E  E  E
--------9------------------|--------------------------|
-------12b-----Lpb---------|-----------------9--L-----|
---------------------------|-------------10-----------|
---------------------------|-------11-----------------|
---------------------------|--------------------------|
---------------------------|--------------------------|


  Q     Q      Q      Q       Q     Q     E  E  E  E
--------9------------------|--------------------------|
-------12b-----Lpb---------|-----------------9--L-----|
---------------------------|-------------10-----------|
---------------------------|-------11-----------------|
---------------------------|--------------------------|
---------------------------|--------------------------|


  Q     Q      Q      Q       Q     Q     E  E  E  E
--------9------------------|--------------------------|
-------12b-----Lpb---------|-----------------9--L-----|
---------------------------|-------------10-----------|
---------------------------|-------11-----------------|
---------------------------|--------------------------|
---------------------------|--------------------------|


  Q     Q      Q      Q       Q     Q     E  E  E  E
--------9------------------|-----------------9--L-----|
-------12b-----Lpb---------|-------------11-----------|
---------------------------|-------11-----------------|
---------------------------|--------------------------|
---------------------------|--------------------------|
---------------------------|--------------------------|


  Q     Q      Q      Q       Q     Q     E  E  E  E
--------9------------------|-----------------9--L-----|
-------12b-----Lpb---------|-------------11-----------|
---------------------------|-------11-----------------|
---------------------------|--------------------------|
---------------------------|--------------------------|
---------------------------|--------------------------|


  Q     Q      Q      Q       Q     Q     E  E  E  E
--------9------------------|--------------------------|
-------12b-----Lpb---------|-----------------9--L-----|
---------------------------|-------------10-----------|
---------------------------|-------11-----------------|
---------------------------|--------------------------|
---------------------------|--------------------------|


  Q     Q      Q      Q       Q     Q     E  E  E  E     W
--------9------------------|--------------------------|-------------------|
-------12b-----Lpb---------|-----------------9--L-----|-------------------|
---------------------------|-------------10-----------|-------------------|
---------------------------|-------11-----------------|-------------------|
---------------------------|--------------------------|-------------------|
---------------------------|--------------------------|-------------------|


  W                   W                   W
-------------------|-------------------|-------------------|
-------------------|-------------------|-------------------|
-------------------|-------------------|-------------------|
-------------------|-------------------|-------------------|
-------------------|-------------------|-------------------|
-------------------|-------------------|-------------------|


  Q     Q      Q      Q       Q     Q     E  E  E  E
--------9------------------|--------------------------|
-------12b-----Lpb---------|-----------------9--L-----|
---------------------------|-------------10-----------|
---------------------------|-------11-----------------|
---------------------------|--------------------------|
---------------------------|--------------------------|


  Q     Q      Q      Q       Q     Q     E  E  E  E       W
--------9------------------|---------------------------||-------------------|
-------12b-----Lpb---------|-----------------9--L------||-------------------|
---------------------------|-------------10-----------*||-------------------|
---------------------------|-------11-----------------*||-------------------|
---------------------------|---------------------------||-------------------|
---------------------------|---------------------------||-------------------|


  W                   W                   W
-------------------|-------------------|-------------------|
-------------------|-------------------|-------------------|
-------------------|-------------------|-------------------|
-------------------|-------------------|-------------------|
-------------------|-------------------|-------------------|
-------------------|-------------------|-------------------|


  Q     Q      Q      Q       Q     Q     E  E  E  E
--------9------------------|--------------------------|
-------12b-----Lpb---------|-----------------9--L-----|
---------------------------|-------------10-----------|
---------------------------|-------11-----------------|
---------------------------|--------------------------|
---------------------------|--------------------------|


  Q     Q      Q      Q       Q     Q     E  E  E  E
--------9------------------|--------------------------|
-------12b-----Lpb---------|-----------------9--L-----|
---------------------------|-------------10-----------|
---------------------------|-------11-----------------|
---------------------------|--------------------------|
---------------------------|--------------------------|


  E   E  E   E   Q     E   E      E   E   E   E   Q      E   E
-------------------------------|---------------------------------|
-------------------------------|---------------------------------|
---------9--11--11b-------11b--|-----11b-----11--11b----11--11b--|
-----11------------------------|---------------------------------|
-------------------------------|---------------------------------|
-------------------------------|---------------------------------|


  E   E  E   E   Q     E   E      E   E   E   E   Q      E   E
-------------------------------|---------------------------------|
-------------------------------|---------------------------------|
---------9--11--11b-------11b--|-----11b-----11--11b----11--11b--|
-----11------------------------|---------------------------------|
-------------------------------|---------------------------------|
-------------------------------|---------------------------------|


                 |------3------|
  E   E  E   E   Q      Q      Q
-------------------------------------|
----------------14~----14~----14~----|
---------9--11-----------------------|
-----11------------------------------|
-------------------------------------|
-------------------------------------|


   |------3------|     |------3------|
   Q      Q      Q     Q      Q      Q       W
------------------------------------------|--4----------------|
--14~----14~----14----14~----14~----14----|--4----------------|
------------------------------------------|--5----------------|
------------------------------------------|-------------------|
------------------------------------------|-------------------|
------------------------------------------|-------------------|


  W                   W                   W
-------------------|--2----------------|-------------------|
-------------------|--2----------------|-------------------|
-------------------|--3----------------|-------------------|
-------------------|-------------------|-------------------|
-------------------|-------------------|-------------------|
-------------------|-------------------|-------------------|


  E   E  E   E   Q      E   E       S E.   E   E    E    E   Q
--------------------------------|----------------------------------|
--------------------------------|----------------------------------|
---------9--11--11b----11--11b--|-----9---11--11b--11b--11--11b----|
-----11-------------------------|--11------------------------------|
--------------------------------|----------------------------------|
--------------------------------|----------------------------------|


   S E.   E   E   E   S E.   E     E   E   E   E   E   E   Q
--------------------------------|-------------------------------|
--------------------------------|---------12--14---L--12--14----|
-----9---11--11b--------9---11--|-----13------------------------|
--11-----------------11---------|-------------------------------|
--------------------------------|-------------------------------|
--------------------------------|-------------------------------|


  Q     Q      Q      Q       Q     Q     E  E  E  E
--------9------------------|--------------------------|
-------12b-----Lpb---------|-----------------9--L-----|
---------------------------|-------------10-----------|
---------------------------|-------11-----------------|
---------------------------|--------------------------|
---------------------------|--------------------------|


  Q     Q      Q      Q       Q     Q     E  E  E  E
--------9------------------|--------------------------|
-------12b-----Lpb---------|-----------------9--L-----|
---------------------------|-------------10-----------|
---------------------------|-------11-----------------|
---------------------------|--------------------------|
---------------------------|--------------------------|


  Q     Q      Q      Q       Q     Q     E  E  E  E
--------9------------------|--------------------------|
-------12b-----Lpb---------|-----------------9--L-----|
---------------------------|-------------10-----------|
---------------------------|-------11-----------------|
---------------------------|--------------------------|
---------------------------|--------------------------|


  Q     Q      Q      Q       Q     Q     E  E  E  E
--------9------------------|--------------------------|
-------12b-----Lpb---------|-----------------9--L-----|
---------------------------|-------------10-----------|
---------------------------|-------11-----------------|
---------------------------|--------------------------|
---------------------------|--------------------------|


  Q     Q      Q      Q       Q     Q     E  E  E  E
--------9------------------|-----------------9--L-----|
-------12b-----Lpb---------|-------------11-----------|
---------------------------|-------11-----------------|
---------------------------|--------------------------|
---------------------------|--------------------------|
---------------------------|--------------------------|


  Q     Q      Q      Q       Q     Q     E  E  E  E
--------9------------------|-----------------9--L-----|
-------12b-----Lpb---------|-------------11-----------|
---------------------------|-------11-----------------|
---------------------------|--------------------------|
---------------------------|--------------------------|
---------------------------|--------------------------|


  Q     Q      Q      Q       Q     Q     E  E  E  E
--------9------------------|--------------------------|
-------12b-----Lpb---------|-----------------9--L-----|
---------------------------|-------------10-----------|
---------------------------|-------11-----------------|
---------------------------|--------------------------|
---------------------------|--------------------------|


  Q     Q      Q      Q       Q     Q     E  E  E  E       W
--------9------------------|--------------------------||--------------------|
-------12b-----Lpb---------|-----------------9--L-----||--------------------|
---------------------------|-------------10-----------||*-------------------|
---------------------------|-------11-----------------||*-------------------|
---------------------------|--------------------------||--------------------|
---------------------------|--------------------------||--------------------|


  W                   W                   W
-------------------|-------------------|-------------------|
-------------------|-------------------|-------------------|
-------------------|-------------------|-------------------|
-------------------|-------------------|-------------------|
-------------------|-------------------|-------------------|
-------------------|-------------------|-------------------|


  Q     Q      Q      Q       Q     Q     E  E  E  E
--------9------------------|--------------------------|
-------12b-----Lpb---------|-----------------9--L-----|
---------------------------|-------------10-----------|
---------------------------|-------11-----------------|
---------------------------|--------------------------|
---------------------------|--------------------------|


  Q     Q      Q      Q       Q     Q     E  E  E  E
--------9------------------|---------------------------||
-------12b-----Lpb---------|-----------------9--L------||
---------------------------|-------------10-----------*||
---------------------------|-------11-----------------*||
---------------------------|---------------------------||
---------------------------|---------------------------||


Duration Legend
---------------
W - whole
H - half
Q - quarter
E - 8th
S - 16th
T - 32nd
X - 64th
. - note dotted
|-n-|  - n-tuplets


Tablature Legend
----------------
L - tied note
x - dead note
g - grace note
(n) - ghost note
> - accentuded note
NH - natural harmonic
AH - artificial harmonic
TH - tapped harmonic
SH - semi harmonic
PH - pitch harmonic
h - hammer on
p - pull off
b - bend
br - bendRelease
pb - preBend
pbr - preBendRelease
brb - bendReleaseBend
\n/ - tremolo bar dip
\n - tremolo bar dive
-/n - tremolo bar Release up
/n\ - tremolo bar inverted dip
/n - tremolo bar return
-\n - tremolo bar Release down
S - shift slide
s - legato slide
/ -  slide into from below or out of upwards
\ -  slide into from above or out of downwards
~ - vibrato
W - wide vibrato
tr - trill
TP - tremolo picking
T - tapping
S - slap
P - pop
< - fade in
^ - brush up
v - brush down





Comments


Popular Donovan tabs & chords
Alamo Chords
Jersey Thursday 1 Chords
Lullaby Of Spring Chords
Mad Johns Escape Chords
People Used To Chords
The Summer Day Reflection Song Chords
Wynken Blynken And Nod Chords
Catch The Wind Tabs
A Soldiers Dream Ukulele
The Ballad Of A Crystal Man Ukulele


Song lyrics



↑ Back to top | Tablatures and chords are parodies/interpretations of the original songs. You may use it for private study, scholarship, research or language learning purposes only
© 2014 AZChords.com Contact us | Privacy policy | DMCA | Add/correct tabs | Request tabs | Top 50 tabs