» » »

Donavon Frankenreiter, On My Mind Tabs (ver.2)

Artists:  A B C D E F G H I J K L M N O P Q R S T U V W X Y Z # 

On My Mind Tabs (ver.2)

Donavon Frankenreiter Tabs
Rating:
4/5 (5 votes)
On My Mind lessons Tabs too difficult? Try these video lessons and learn fast
                Yo! this is David boudestein from holland, 
I made this tab because i could only find inaccurate tabs for this song...
Its a great song, so here it is. i think its 99% accurate.
This is my first tab! :D useless information,so what are you waiting for?!
Enjoy playing!



Verse guitar, (Ahh baby, lets get down tonight etc)

    C#m           Bm7

E:---0-x----------2-x----------------|
B:---2-x--2x2-----3-x--3x3------------|
G:---1-x--1x1-----2-x--2x2------------|
D:---2-x----------4-x----------------|
A:---0-x----------2-x----------------|
E:---x-x----------2-x----------------|

Pre Chorus : (even though i cant see ya, all the time)

     D         Dm        A

E:---2----x----1----x----0----x--|
B:---3----x----3----x----2----x--|
G:---2----x----2----x----2----x--|
D:---0----x----0----x----2----x--|
A:---x----x----x----x----x----x--|
E:---x----x----x----x----x----x--|

Riff 1:

E:---5h7p5---------------|
B:--------5h7p5----------|
G:-------------4h6p4-2---|
D:-----------------------|
A:-----------------------|
E:-----------------------|


Riff 2:


E:----------0h2-5--------|
B:-------0h2-------------|
G:------2----------------|
D:---2h4-----------------|
A:-----------------------|
E:-----------------------|

____________________________________________________________________________

Chorus: (On my mind on my mind again)

     A       G       Bm(7)

E:---0---x---3---x---2--------|
B:---2---x---0---x---3--------|
G:---2---x---0---x---4--------|
D:---2---x---0---x---4--------|
A:---0---x---2---x---2--------|
E:---0---x---3---x---2--------|

(But I got to let you know that ill never let you go)

    C#m      D 
E:---4-------5----|
B:---4-------7----|
G:---5-------7----|
D:---6-------7----|
A:---6-------5----|
E:---4-------5----|


Listen to the song, for timing, and playing style.
Here are the lyrics, 
i was to lazy to put the chords and riffs in the lyrics, 
but im sure you will be fine.

Verse play :

Oh baby let's get down tonight
Every time we do it just feels so right
Lets go sit underneath that willow tree
Oh baby just you and me

Even though I can't see you all the time
I got to let you know you're on my mind
Even though I can't see you all the time
I got to let you know you're on my mind

Girl you're on my mind, on my mind again
On my mind, on my mind again
You're on my mind, on my mind again
But I got to let you know that ill never let you go

You take those clouds and make a sunny day
I love to watch you do it just your own way
You take my day into night
You still give me all that loving light, loving light, yeah

Even though I can't see you all the time
I got to let you know you're on my mind
Even though I can't see you all the time
I got to let you know you're on my mind

Girl you're on my mind, on my mind again
Woman don't you know
You're on my mind, you're on my mind again
Oh I got to let you know
You're on my mind, you're on my mind again
Because you're on my mind, on my mind again


HollA!!!!
            

comments powered by Disqus
↑ Back to top | Donavon Frankenreiter Tabs for On My Mind. Lyrics for acoustic guitar and electric guitar. Tablatures and chords are parodies/interpretations of the original songs. You may use it for private study, scholarship, research or language learning purposes only