» » »

Donavon Frankenreiter, It Don't Matter Chords (ver.3)

Artists:  A B C D E F G H I J K L M N O P Q R S T U V W X Y Z # 

It Don't Matter Chords (ver.3)

Donavon Frankenreiter Tabs
 Rating:
4/5 (4 votes)
It Don't Matter lessons Tabs too difficult? Try these video lessons and learn fast
1
                -----------------------------------------------------------------------------
                donavon frankenreiter - it don't matter
-----------------------------------------------------------------------------
*this tab is based on an original tab by GP Jones that I modified a little bit...

Tuning:standard
-----------------------------------------------------------------------------
Intro: C  F  G  C*

VERSE:
        C        F        G       C*
e|------3--------1--------3-------8-------|
B|------5--------1--------3-------8-------|
G|------5--------2--------4-------9-------|
D|------5--------3--------5-------10------|
A|------3--------3--------5-------10------|
E|------3--------1--------3-------8-------|

CHORUS:
        C        F        G       C*
e|------3--------1--------3-------8-------|
B|------5--------1--------3-------8-------|
G|------5--------2--------4-------9-------|
D|------5--------3--------5-------10------|
A|------3--------3--------5-------10------|
E|------3--------1--------3-------8-------|

BRIDGE:
         F       G
e|-------1-------3-------|
B|-------1-------3-------|
G|-------2-------4-------|   X 3
D|-------3-------5-------|
A|-------3-------5-------|
E|-------1-------3-------|

OUTRO:
e|-------------------------------------|
B|---5h8p5---5---3---1---3/5---3---1---| 
G|-------------------------------------|  X4
D|-------------------------------------|
A|-------------------------------------|
E|-------------------------------------|

...AND FINISH THE SONG UP ON C...

LYRICS:

VERSE 1:
every day people like you and me 
just wanna live life naturally
time taught you and you taught me
nothin's gonna keep us down cant you see

CHORUS:
(i said)if it dont matter to you, it dont matter to me... 
if it dont matter to you, it dont matter to me, no

VERSE 2
people all around makin' sounds and all kind o' noise
if i could only get there, then i could enjoy
who they tryin' to be, who they tryin' to fool 
let's change the mood right now
turn down the lights it's time to cool it down

BRIDGE:
yesterday and what we could be
it dont matter
gettin' more of what we dont need
it dont matter
everything unless it's with you
it doesn't matter to me, no...

bring it on down, bring it on down to me...
sing it on down, sing it on down for me...
sing it on down, sing it on down to me...

CHORUS:
if it don't matter to you, it don't matter to me... 
if it don't matter to you, it don't matter to me...
(i said now)if it don't matter to you, it don't matter to me... 
(no no no no) if it don't matter to you, it don't matter to me... 
sometimes it don't matter to me, don't matter to me... 

OUTRO:
-----------------------------------------------------------------------------
"...you don't know me..."
            
Submit corrections

comments powered by Disqus
↑ Back to top | Donavon Frankenreiter Chords for It Don't Matter. Lyrics for acoustic guitar and electric guitar. 1 Tablatures and chords are parodies/interpretations of the original songs. You may use it for private study, scholarship, research or language learning purposes only