» » »

Donavon Frankenreiter, Butterfly Tabs (ver.2)

Artists:  A B C D E F G H I J K L M N O P Q R S T U V W X Y Z # 

Butterfly Tabs (ver.2)

Donavon Frankenreiter Tabs
 Rating:
4/5 (4 votes)
Butterfly lessons Tabs too difficult? Try these video lessons and learn fast
1
                ----------------------------------------------------------------------------
                     BUTTERFLY - Donavon Frankenreiter                      
----------------------------------------------------------------------------


Tuning: Standard

                                                          
   GUITAR ONE : INTRO / OUTRO......................VERSE(s) played thoughout
e|--------------------------------------------|----------------------------|
B|-----8-------8-------8-------3-------3------|----------------------------|
G|-7-7---7-7-7---7-6-6---6-5-5---5-5-5---5-5--|---4-4--5-5--7-7--5-5-------|
D|-0-------0----------------------------------|----------------------------|
A|-------------------------0-------0----------|----------------------------|
E|-----------------6--------------------------|---3-3--5-5--7-7--5-5-------|



   GUITAR TWO : INTRO / CHORUS / OUTRO                              
e|-----------------------10-8--7-5-3---------------------|This is played
B|---3---3-5-3----5-5/8--12-10-8-7-5------7/8-----10\8---|periodically
G|--4---4-------------------------------0-------0--------|throughout the
D|-5---5-------------------------------------------------|song, it varies
A|-------------------------------------------------------|a little bit each 
E|-------------------------------------------------------|time.

   SOLO : 
e|---5/7--10\5-5\3--3/5\3-0-2/3--3/5--5/10----|
B|--------------------------------------------|
G|--------------------------------------------|
D|--------------------------------------------|
A|--------------------------------------------|
E|--------------------------------------------|


great song, easy to play.
            
Submit corrections

comments powered by Disqus
↑ Back to top | Donavon Frankenreiter Tabs for Butterfly. Lyrics for acoustic guitar and electric guitar. 1 Tablatures and chords are parodies/interpretations of the original songs. You may use it for private study, scholarship, research or language learning purposes only