>
 >
Veneno Es Antidoto Sos 1

Veneno Es Antidoto Sos 1 Guitar Tabs

Division Minuscula - Veneno Es Antidoto Sos 1 chords, tabs, tablatures, lyrics

Guitar lessons | Add/correct | Request | Top 50 tabs Artists:  A B C D E F G H I J K L M N O P Q R S T U V W X Y Z 0-9

Veneno Es Antidoto Sos 1 Guitar Tabs – Division Minuscula

CD, Sheet music, Poster

Do you like Veneno Es Antidoto Sos 1? Share with your friends now
TabsTabs v2
-------------------------------------------------------------------------------
                VENENO ES ANTIDOTO (S.O.S.) - División Minúscula
-------------------------------------------------------------------------------

Tuning: Drop D (DADgbe)

Jajaja la gente va a pensar que soy bien fan de división minúsula jaja
pero ps no, pero me pidieron que tabbeara esta rola y pues aqui estoy

Intro "Si crees que te llevaste algo de mí"
Guitarra 1
esto se toca asi casi casi como si fueran acordes
e|---------0---------0--|
B|---3---3-----3---3----|
G|-6---6-----6---6------|
D|----------------------|
A|----------------------|
D|----------------------|

Guitarra 2
toca el power chord de F#



"Ven y recuerdalo, veneno es antidoto"
Guitarra 1
toca esta figura en rasgeos hacia arriba
e|-0--|
B|-5--|
G|-6--|
D|----|
A|----|
D|----|

Guitarra 2
e|----------------------------------------------|
B|----------------------------------------------|
G|----------------------------------------------|
D|-0-00----------0-00-------------0-444--66-77--|
A|-0-00----------0-00-------------0-444--66-77--|
D|-0-00----------0-00-------------0-444--66-77--|




"Y buscas provocarme, sabes hacerlo bien"
Guitarra 1 (los X con un numerito al lado de los acordes es cuantas
veces se tocan)
e|----------------------------------------------------------|
B|----------------------------------------------------------|
G|-14-----11-----14-----16-----18-----14-----11-----14------|
D|--x-X8---x-X8---x-X8---x-X4---x-X4---x-X8---x-X8---x-X16--|
A|-12------9-----12-----14-----16-----12------9-----12------|
D|----------------------------------------------------------|

Guitarra 2
E|---------------------------------------|
B|---------------------------------------|
G|---------------------------------------|
D|-00000000-44444444-00000000-6666-7777--|
A|-00000000-44444444-00000000-6666-7777--|
D|-00000000-44444444-00000000-6666-7777--|




"El Filo está en tu piel"
Guitarra 1
e|-------------------------|
B|-77777777-9999-10101010--|
G|-66666666-8888--9-9-9-9--|
D|-44444444-6666--7-7-7-7--|
A|-------------------------|
D|-------------------------|

Guitarra 2
e|-------------------------------|
B|-------------------------------|
G|-------------------------------|
D|-000000000000--44--44--44--44--|
A|-000000000000--44--44--44--44--|
D|-000000000000--44--44--44--44--|





"Si crees que te llevaste algo de mi"
Guitarra 1
e|---------0---------0--|
B|---3---3-----3---3----|
G|-6---6-----6---6------|
D|----------------------|
A|----------------------|
D|----------------------|

Guitarra 2
e|--------------------------------|
B|--------------------------------|
G|--------------------------------|
D|-0000000000000-444444444444444--|
A|-0000000000000-444444444444444--|
D|-0000000000000-444444444444444--|


"Tu peor error"
Guitarra 1 (en partes toca esto)
e|---------0---------0--|
B|---3---3-----3---3----|
G|-6---6-----6---6------|
D|----------------------|
A|----------------------|
D|----------------------|

y al final toca esto
e|-----|
B|-----|
G|-14--|
D|--x--|
A|-12--|
D|-----|

Guitarra 2 (en partes lo toca palm muted)
e|-----------------|
B|-----------------|
G|-----------------|
D|-0000-4444-2222--|
A|-0000-4444-2222--|
D|-0000-4444-2222--|


| /  slide up
| \  slide down
| h  hammer-on
| p  pull-off
| ~  vibrato
| +  harmonic
| x  Mute note
===============================================================================





Comments


Popular Division Minuscula tabs & chords
Prestame Tu Piel Chords
Sismo Chords
ExtrañAndo A Casa 1 Tabs
La Ultima Y Me Voy Tabs
Las Luces De Esta Cuidad Tabs
Radical Tabs
Soundtrack Tabs
Control Ukulele
Prestame Tu Piel Ukulele
Sognare Ukulele


Song lyrics



↑ Back to top | Tablatures and chords are parodies/interpretations of the original songs. You may use it for private study, scholarship, research or language learning purposes only
© 2014 AZChords.com Contact us | Privacy policy | DMCA | Add/correct tabs | Request tabs | Top 50 tabs