» » »

Division Minuscula, Veneno Es Antidoto Sos Tabs (ver.1)

Artists:  A B C D E F G H I J K L M N O P Q R S T U V W X Y Z # 

Veneno Es Antidoto Sos Tabs (ver.1)

Division Minuscula Tabs
 Rating:
4/5 (6 votes)
Veneno Es Antidoto Sos lessons Tabs too difficult? Try these video lessons and learn fast
1
                                         veneno es antidoto (s.o.s)
                           division minuscula


     tabed by: diego alvarez del castillo


      Bueno esta cancion es la mejor de esta banda asi k ahi les va...
        
       
      tunning:drop d

      intro:"si crees que te llevaste algo de mi"
      Guitarra 1:
      e|---------0---------0--|
      B|---3---3-----3---3----|
      G|-6---6-----6---6------|
      D|----------------------|
      A|----------------------|
      D|----------------------|
      
      luego entra Guitarra 2:
      (mas vale que regreses porque sigo aqui mui bien)

      e|--------------------------------------|
      B|--------------------------------------|
      G|--------------------------------------|   
      D|-444-444-444-444-444-444-444-444-4----|x2
      A|-444-444-444-444-444-444-444-444-4----|
      D|-222-222-222-222-222-222-222-222-2----|

      
       "Ven y recuerdalo, veneno es antidoto"
       Guitarra 1
       
       e|-0-0-0-0-0-0-0-0-0-0-0-0-0-0-0-0-|
       B|-5-5-5-5-5-5-5-5-5-5-5-5-5-5-5-5-|
       G|-6-6-6-6-6-6-6-6-6-6-6-6-6-6-6-6-|
       D|---------------------------------|
       A|---------------------------------|
       D|---------------------------------|

       Guitarra 2
       e|----------------------------------------------|
       B|----------------------------------------------|
       G|----------------------------------------------|
       D|-0-00----------0-00-------------0-444--66-77--|
       A|-0-00----------0-00-------------0-444--66-77--|
       D|-0-00----------0-00-------------0-222--44-55--|

       coro:
       "Y buscas provocarme, sabes hacerlo bien"
       Guitarra 1
       e|----------------------------------------------------------|
       B|----------------------------------------------------------|
       G|-14-----11-----14-----16-----18-----14-----11-----14------|
       D|--x-X8---x-X8---x-X8---x-X4---x-X4---x-X8---x-X8---x-X16--|
       A|-12------9-----12-----14-----16-----12------9-----12------|
       D|----------------------------------------------------------|

       Guitarra 2
       E|---------------------------------------|
       B|---------------------------------------|
       G|---------------------------------------|
       D|-00000000-44444444-00000000-6666-7777--|
       A|-00000000-44444444-00000000-6666-7777--|
       D|-00000000-22222222-00000000-4444-5555--|

       
       E|-----------------------------|
       B|-----------------------------|
       G|-----------------------------|
       D|-00000000-44444444-02222222--|
       A|-00000000-44444444-02222222--|
       D|-00000000-22222222-02222222--|
       

       
       E|---------------------------------------|
       B|---------------------------------------|
       G|---------------------------------------|
       D|-00000000-44444444-00000000-6666-7777--|
       A|-00000000-44444444-00000000-6666-7777--|
       D|-00000000-22222222-00000000-4444-5555--|

       
       E|-----------------------------|
       B|-----------------------------|
       G|-----------------------------|
       D|-00000000-44444444-02222222--|
       A|-00000000-44444444-02222222--|
       D|-00000000-22222222-02222222--|

       "El Filo está en tu piel"
       Guitarra 1
       e|-------------------------|
       B|-77777777-9999-10101010--|
       G|-66666666-8888--9-9-9-9--|
       D|-44444444-6666--7-7-7-7--|
       A|-------------------------|
       D|-------------------------|

       Guitarra 2
       e|-------------------------------|
       B|-------------------------------|
       G|-------------------------------|
       D|-000000000000--44--44--44--44--|
       A|-000000000000--44--44--44--44--|
       D|-000000000000--22--22--22--22--|

       "Ven y recuerdalo, veneno es antidoto"
       Guitarra 1
       
       e|-0-0-0-0-0-0-0-0-0-0-0-0-0-0-0-0-|
       B|-5-5-5-5-5-5-5-5-5-5-5-5-5-5-5-5-|
       G|-6-6-6-6-6-6-6-6-6-6-6-6-6-6-6-6-|
       D|---------------------------------|
       A|---------------------------------|
       D|---------------------------------|

       Guitarra 2
       e|--------------------------------------------|
       B|--------------------------------------------|
       G|--------------------------------------------|
       D|-0-00----------0-00--------------/44--4-44--|
       A|-0-00----------0-00--------------/44--4-44--|
       D|-0-00----------0-00--------------/22--2-22--|

       "Si crees que te llevaste algo de mi"
       Guitarra 1
       e|---------0---------0--|
       B|---3---3-----3---3----|
       G|-6---6-----6---6------|
       D|----------------------|
       A|----------------------|
       D|----------------------|

       Guitarra 2
       e|--------------------------------|
       B|--------------------------------|
       G|--------------------------------|
       D|-0000000000000-444444444444444--|x2
       A|-0000000000000-444444444444444--|
       D|-0000000000000-222222222222222--|

       Guitarra 2
       e|------------------------------------------------|
       B|------------------------------------------------|
       G|------------------------------------------------|
       D|-00-42--00-67--00-42--00-666777-----------------|
       A|-00-42--00-67--00-42--00-666777-----------------|
       D|-00-20--00-45--00-20--00-444555-----------------|
                                  ......(PM)

       Guitarra 1
       e|---------0---------0--|
       B|---3---3-----3---3----|
       G|-6---6-----6---6------|
       D|----------------------|
       A|----------------------|
       D|----------------------|

          Guitarra 2
       e|-----------------------------------------|
       B|-----------------------------------------|
       G|-----------------------------------------|
       D|-0-42--0-67--0-42--0-6-7-----------------|
       A|-0-42--0-67--0-42--0-6-7-----------------|
       D|-0-20--0-45--0-20--0-4-5-----------------|
                              

        coro 2:
       "Y buscas provocarme, sabes hacerlo bien"
       Guitarra 1
       e|----------------------------------------------------------|
       B|----------------------------------------------------------|
       G|-14-----11-----14-----16-----18-----14-----11-----14------|
       D|--x-X8---x-X8---x-X8---x-X4---x-X4---x-X8---x-X8---x-X16--|
       A|-12------9-----12-----14-----16-----12------9-----12------|
       D|----------------------------------------------------------|

       Guitarra 2
       E|---------------------------------------|
       B|---------------------------------------|
       G|---------------------------------------|
       D|-00000000-44444444-00000000-6666-7777--|
       A|-00000000-44444444-00000000-6666-7777--|
       D|-00000000-22222222-00000000-4444-5555--|

       
       E|-----------------------------|
       B|-----------------------------|
       G|-----------------------------|
       D|-00000000-44444444-02222222--|
       A|-00000000-44444444-02222222--|
       D|-00000000-22222222-02222222--|
       

       
       E|---------------------------------------|
       B|---------------------------------------|
       G|---------------------------------------|
       D|-00000000-44444444-00000000-6666-7777--|
       A|-00000000-44444444-00000000-6666-7777--|
       D|-00000000-22222222-00000000-4444-5555--|

       
       E|-----------------------------|
       B|-----------------------------|
       G|-----------------------------|
       D|-00000000-44444444-02222222--|
       A|-00000000-44444444-02222222--|
       D|-00000000-22222222-02222222--|

       
       Outro:

        "Si crees que te llevaste algo de mi"
       Guitarra 1
       e|---------0---------0--|
       B|---3---3-----3---3----|
       G|-6---6-----6---6------|
       D|----------------------|
       A|----------------------|
       D|----------------------|

        Guitarra 2
       e|----------------------------------------------------|
       B|----------------------------------------------------|
       G|----------------------------------------------------|
       D|-00-42--00-67--00-444222--00-666777-----------------|
       A|-00-42--00-67--00-444222--00-666777-----------------|
       D|-00-20--00-45--00-222000--00-444555-----------------|
                           ......(PM)
 Eso es todo comentarios a mi email porfavor y arreglen lo k kieran adios!!!
 y por ultimo division rocks!!!!
            
Submit corrections

comments powered by Disqus
↑ Back to top | Division Minuscula Tabs for Veneno Es Antidoto Sos. Lyrics for acoustic guitar and electric guitar. 1 Tablatures and chords are parodies/interpretations of the original songs. You may use it for private study, scholarship, research or language learning purposes only