>
 >
Un Beso Al Aire Y Un Tiro Al Pecho.. 1

Un Beso Al Aire Y Un Tiro Al Pecho.. 1 Guitar Tabs

Division Minuscula - Un Beso Al Aire Y Un Tiro Al Pecho.. 1 chords, tabs, tablatures, lyrics

Guitar lessons | Add/correct | Request | Top 50 tabs Artists:  A B C D E F G H I J K L M N O P Q R S T U V W X Y Z 0-9

Un Beso Al Aire Y Un Tiro Al Pecho.. 1 Guitar Tabs – Division Minuscula

CD, Sheet music, Poster

Do you like Un Beso Al Aire Y Un Tiro Al Pecho.. 1? Share with your friends now
TabsTabs v2
intro
Guitarra 1

e|------------------------------------------|
B|------------------------------------------|
G|------------------------------------------|
D|-999-000-777-5/7-999-000-777-5/7-555-777--|
A|-999-000-777-5/7-999-000-777-5/7-555-777--|
D|-979-000-757-5/7-979-000-757-5/7-235-757--|

Guitarra 2 (Entra después)
e|-------------------------------------|
B|-------------------------------------|
G|-11-11-11-11-11-11-11-11-1111-9-7/9--| X 2
D|----9-----9-----9-----9---------7-9--|
A|-9--9--9--9--9--9--9--9--9-9--7-5/7--|
D|-------------------------------------|
Llevo noches sin dormir,
días enteros sin salir,
si quieres razones te las digo:
sumale a una fobia al sol
un angel en ropa interior que me dice: "no te vayas"

Disfrazate de reina y reina esta noche
distrae a todo aquel el que se asome
dispararé solo un par de argumentos
un beso al aire y un tiro al pecho...

El fin del mundo esta
en la puerta dispuesto a entrar,
tu no te preocupes y haz las maletas.
Tu y yo no somos de aqui amor,
somos de donde nunca quema el sol
y la noche nos da vida...

Disfrazate de reina y reina esta noche
distrae a todo aquel el que se asome
dispararé solo un par de argumentos
un tiro al aire y un beso al pecho...

Un beso al aire y un tiro al pecho...
Un beso al aire y un tiro al pecho...

La cama brazos y las paredes pies,
abrazan y caminan, dime no lo ves?(no)
lo sientes?(no)...nueva dosis es urgente.

e|----------------------------------------------|
B|----------------------------------------------|
G|-7777777777-1414141414-111111-777-999-777-14--|
D|---7---7--------14-------11----7---9---7--14--|
A|-5555555555-1212121212-9-9-9--555-777-555-12--|
D|----------------------------------------------|

Verso
e|------------|
B|------------|
G|-----77-----|
D|-99--77-77--|
A|-99-255-77--|
D|-79----57---|

Disfrazate de reina y reina esta noche
distrae a todo aquel el que se asome
dispararé solo un par de argumentos
un tiro al aire y un beso al pecho...
Coro
e|-----------------------------|
B|-----------------------------|
G|-----------------------------|
D|-----------------------------|
A|-7-------7------2--0--0-4-5--|
D|---7-4-5----7-4-2--0--0-4-5--|
Un beso al aire un tiro al pecho...
Un beso al aire un tiro al pecho...
Un beso al aire un tiro al pecho.
Solo
e|-------------------------------------------------------------------|
B|----------7----------------7----7----7-----------------------------|
G|-9b11-7-9---------7---7h9--9b11-9b11-9b11--------------------------|
D|------------9-7h9---9-------------------------7h9-----7h9-----7h9--|
A|------------------------------------------7h9-----7h9-----7h9------|
D|-------------------------------------------------------------------|

e|----------|
B|----------|
G|-11-9--7--|
D|----------|
A|-9--7--5--|
D|----------|





Comments


Popular Division Minuscula tabs & chords
Betty Boop Chords
Songnare Chords
Cursi Tabs
Sed Tabs
Soundtrack Tabs
Todo Tabs
Control Ukulele
La Ultima Y Me Voy Ukulele
Prestame Tu Piel Ukulele
Sismo Ukulele


Song lyrics



↑ Back to top | Tablatures and chords are parodies/interpretations of the original songs. You may use it for private study, scholarship, research or language learning purposes only
© 2014 AZChords.com Contact us | Privacy policy | DMCA | Add/correct tabs | Request tabs | Top 50 tabs