» » »

Un Beso Al Aire Y Un Tiro Al Pecho.. Tabs (ver.1)

Artists:  A B C D E F G H I J K L M N O P Q R S T U V W X Y Z # 

Un Beso Al Aire Y Un Tiro Al Pecho.. Tabs (ver.1)

Division Minuscula
Rating:
0/5 (0 votes)

Hard to play? Try these video lessons and learn fast.
                -------------------------------------------------------------------------------
           UN BESO AL AIRE Y UN TIRO AL PECHO - División Minúscula
-------------------------------------------------------------------------------

Tuning: Drop D (DADgbe)

Justo cuando uno penso que mi tiempo de sacar canciones de division había
expirado, aqui vengo de nuevo con otra rola del nuevo disco, una de mis
favoritas,
ya se la saben, cualquier cosa mandenme un mail, y NO por nada del mundo
me agregen al messenger para literalmente obligarme a sacar rolas de bandas
que ni conozco, gracias :)

Por ahi, saludos al J.Blake si llega a leer esto :O

Intro
Guitarra 1
e|------------------------------------------|
B|------------------------------------------|
G|------------------------------------------|
D|-999-000-777-5/7-999-000-777-5/7-555-777--|
A|-999-000-777-5/7-999-000-777-5/7-555-777--|
D|-999-000-777-5/7-999-000-777-5/7-555-777--|

Guitarra 2 (Entra después)
e|-----------------------------|
B|-----------------------------|
G|-11111111111111111111-9-7/9--| X 2
D|-----------------------------|
A|-9-9-9-9-9-9-9-9-9-9--7-5/7--|
D|-----------------------------|

e|----------------------------------------------|
B|----------------------------------------------|
G|-7777777777-1414141414-111111-777-999-777-14--|
D|----------------------------------------------|
A|-5555555555-1212121212-9-9-9--555-777-555-12--|
D|----------------------------------------------|

Verso
e|-----------|
B|-----------|
G|----77-----|
D|-99-77-77--|
A|-99-55-77--|
D|-99----77--|

Coro
e|-----------------------------|
B|-----------------------------|
G|-----------------------------|
D|-----------------------------|
A|-7-------7------2--0--0-4-5--|
D|---7-4-5----7-4-2--0--0-4-5--|

Solo
e|-------------------------------------------------------------------|
B|----------7----------------7----7----7-----------------------------|
G|-9b11-7-9---------7---7h9--9b11-9b11-9b11--------------------------|
D|------------9-7h9---9-------------------------7h9-----7h9-----7h9--|
A|------------------------------------------7h9-----7h9-----7h9------|
D|-------------------------------------------------------------------|

e|----------|
B|----------|
G|-11-9--7--|
D|----------|
A|-9--7--5--|
D|----------|


| /  slide up
| \  slide down
| h  hammer-on
| p  pull-off
| ~  vibrato
| +  harmonic
| x  Mute note
===============================================================================
            
Hard to play? Try these video lessons and learn fast. | Correct




comments powered by Disqus
↑ Back to top | Tablatures and chords are parodies/interpretations of the original songs. You may use it for private study, scholarship, research or language learning purposes only