>
 >
Cansado De Pedir Perdon 1

Cansado De Pedir Perdon 1 Guitar Tabs

Division Minuscula - Cansado De Pedir Perdon 1 chords, tabs, tablatures, lyrics

Guitar lessons | Add/correct | Request | Top 50 tabs Artists:  A B C D E F G H I J K L M N O P Q R S T U V W X Y Z 0-9

Cansado De Pedir Perdon 1 Guitar Tabs – Division Minuscula

CD, Sheet music, Poster

Do you like Cansado De Pedir Perdon 1? Share with your friends now
TabsTabs v2
cansado de pedir perdon 
GuItAr 1 
    INTRO 
|-----------------------|| 
|-----------------------|| 
|-4---------------------|| 
|-X---------------------|| 
|-2---------------------|| 
|-----------------------|| 


     RIFF 1            Chorus
|--------------|------------------------------------------|| 
|--------------|------------------------------------------|| 
|-6-4--2 -6--4-|-6-4--2---6-4--2---6-4---2---2--4---------|| 
|-X-X--2--X--X-|-X-X--2-2-X-X--2---X-X---2-2-2--X---2-----|| --  RIFF 1 
|-4-2--0 -4--2-|-4-2--0-2-4-2--0---4-2---0-2-0--2---0-----|| 
|------0-------|--------0-0----0---------0-0-0------0-----|| 

|--------------------------------------|| 
|--------------------------------------|| 
|-6--6--4--4--2--2--2--2---------------|| 
|-6--6--4--4--2--2--2--2---X-4---------|| 
|-4--4--2--2--0--0--0--0---------------|| 
|--------------------------------------|| 
P.M   P.M   P.M   P.M 


|--------------------|-------------------------------------|| 
|--------------------|-------------------------------------|| 
|-6-6-4--2--2--------|-6-4--2-----------6-4------2--4------|| 
|-X-X-X--2--2--2---X7|-X-X--2-2---X-3---X-X---2--2--X------|| 
|-4-4-2--0--0--2-----|-4-2--0-2---------4-2---2--0--2------|| 
|--------0--0--0-----|------0-0---------------0--0---------|| 
chorus
|-------------------------------------------|| 
|-------------------------------------------|| 
|-6-4-2---6-4-2---6-4--2------2---4---------|| 
|-X-X-2-2-X-X-2---X-X--2--2---2---X----2----|| 
|-4-2-0-2-4-2-0---4-2--0--2---0---2----0----|| 
|-----0-0-----0--------0--0---0--------0----|| 
     RIFF 1            Chorus
|----------------| 
|----------------| 
|-6-4--2 -6--4---| 
|-X-X--2--X--X---| 
|-4-2--0 -4--2---| 
|------0---------| 


  end 
INTRO 
|---------------------------|| 
|---------------------------|| 
|-2--6--4------------------.|| 
|-2--x--x--x-4--------------|| 
|-0--4--2-------------------|| 
|-0-------------------------|| 

  gUiTaR 2 
  INTRO 
|--------------------------|| 
|--------------------------|| 
|---4------4---------------|| 
|-----2------2-------------|| 
|-0------0-----------------|| 
|--------------------------|| 



                             RIFF 1 
|--------------------------------------------------------------------|| 
|--------------------------------------------------------------------|| 
|-13-11-9-11--13--14--13-11-14-13--11-9-13-11-16-14-13-11-9---11-----|| 
|-X--X--X--X--X---X---X--X--X---X--X--X--X--X--X--X--X--X-X---X------|| 
|-11-9--7--9--11--12--11--9-12-11--9--7-11--9-14-12-11--9-7---9------|| 
|--------------------------------------------------------------------|| 

      Chorus
|-------------------------------------------------------------------|| 
|-------------------------------------------------------------------|| 
|-6---4--2------6---4--14---16---6---4---2-----2--4---6-------------|| 
|-X---X--2--2---X---X--14---X----X---X---2--2--2--X--X--------------|| 
|-4---2--0--2---4---2--12---14---4---2---0--2--0--2---4-------------|| 
|--------0--0------------------------0---0--0-----------------------|| 

INTRO 
|--------------------------|| 
|--------------------------|| 
|---4------4---------------|| 
|-----2------2-------------|| 
|-0------0-----------------|| 
|--------------------------|| 



RIFF 1 
|--------------------------------------------------------------------|| 
|--------------------------------------------------------------------|| 
|-13-11-9-11--13--14--13-11-14-13--11-9-13-11-16-14-13-11-9---11-----|| 
|-X--X--X--X--X---X---X--X--X---X--X--X--X--X--X--X--X--X-X---X------|| 
|-11-9--7--9--11--12--11--9-12-11--9--7-11--9-14-12-11--9-7---9------|| 
|--------------------------------------------------------------------|| 


|----------------------------|-----------------------------------|| 
|----------------------------|-----------------------------------|| 
|-13--11---9---14---13---11--|--6---6--4--4---2--2--2--2---------|| 
|-X----X---X---X----X-----X--|--6---6--4--4---2--2--2--2---X-4---|| 
|-11---9---7---12---11----9--|--4---4--2--2---0--0--0--0---------|| 
|----------------------------|-----------------------------------|| 
                               P.M   P.M    P.M   P.M 
            SOLO 

|--------------------------------------------------------------------|| 
|-9h10p9--9h10p9--9h10p9--(varias veces)-----------------------------|| 
|--------------------------------------------6--7--9--7--6-7--6------|| 
|----------------------------------------7-9-------------------------|| 
|--------------------------------------------------------------------|| 
|--------------------------------------------------------------------|| 


|---------------------------------------------------------------------|| 
|---9--10--10/12--10--9---------------10---9----10----9---------------|| 
|-9--------------------------X-6--------------------------------------|| 
|-----------------------------------11--------9-----------------------|| 
|---------------------------------------------------------------------|| 
|---------------------------------------------------------------------|| 

|---------------------------------------------------------------------|| 
|---------------------------------------------------------------------|| 
|-13-11-9-6----13-11-14-13---13-11--9---6--13-11-14-13---9-11-13------|| 
|-X--X--X-X----X--X---X--X----X--X--X---X--X--X---X--X---X--X--X------|| 
|-11-9--7-4----11--9-12-11---11--9--7---4--11--9-12--11--7--9-11------|| 
|---------------------------------------------------------------------|| 
      chorus
|--------------------------------------------------------------------|| 
|--------------------------------------------------------------------|| 
|-6---4--2------6---4--14---16---6---4---2-----2--4---6--------------|| 
|-X---X--2--2---X---X--14---X----X---X---2--2--2--X---X--------------|| 
|-4---2--0--2---4---2--12---14---4---2---0--2--0--2---4--------------|| 
|--------0--0------------------------0---0--0------------------------|| 
             END 
|----------------------------------------------|-------------------|| 
|----------------------------------------------|-------------------|| 
|---4-------4-----------4--------4-------------|--9---9/11---------|| 
|------2-------2-----------2--------2----------|--X---X-X----------|| 
|-0-------0-------4-----------2----------------|--7---7-9----------|| 
|----------------------------------------------|-------------------||





Comments


Popular Division Minuscula tabs & chords
Cada Martes Chords
Control Chords
Cada Martes Intro Tabs
Cursi 2 Tabs
Tan Fuerte Tan Fragil Intro Tabs
Un Beso Al Aire Y Un Tiro Al Pecho.. Tabs
Veneno Es Antidoto Sos Tabs
Prestame Tu Piel Ukulele
Sismo Ukulele
Sognare Ukulele


Song lyrics



↑ Back to top | Tablatures and chords are parodies/interpretations of the original songs. You may use it for private study, scholarship, research or language learning purposes only
© 2014 AZChords.com Contact us | Privacy policy | DMCA | Add/correct tabs | Request tabs | Top 50 tabs