>
 >
Cansado De Pedir Perdon

Cansado De Pedir Perdon Guitar Tabs

Division Minuscula - Cansado De Pedir Perdon chords, tabs, tablatures, lyrics

Guitar lessons | Add/correct | Request | Top 50 tabs Artists:  A B C D E F G H I J K L M N O P Q R S T U V W X Y Z 0-9

Cansado De Pedir Perdon Guitar Tabs – Division Minuscula

CD, Sheet music, Poster

Do you like Cansado De Pedir Perdon? Share with your friends now
TabsTabs v2
Intro : Guitarra 1

Es logico...      Esta Vez si no te puedo ayudar......
     x1                         x 3
e|------------I------------------------------------------------------------|
B|------------I------------------------------------------------------------|
G|--4///------I-66666666--444444444--22222222-222222222--------------------|
D|--4///------I-66666666--444444444--22222222-222222222--------------------|
A|--2///------I-44444444--222222222--00000000-000000000--------------------|
E|------------I------------------------------------------------------------|

e|-----------------------|
B|-----------------------|
G|--4///-------6///------|
D|--4///-------6///------|
A|--2///-------4///------|
E|-----------------------|

Guitarra 2

    x 1
e|-------------I-----------------------------------------------------------|
B|-------------I-----------------------------------------------------------|
G|---4----4----I-66666666--4444444444--8999-11111111-1313-14-14------------|
D|--4-4--4-4---I-xxxxxxxx--xxxxxxxxxx--xxxx-x-x-x-x--x-x--x--x-------------|
A|-2----2------I-44444444--2222222222--6777-9-9-9-9--1111-12-12------------|
E|-------------------------------------------------------------------------|I

e|----------------------------------------------|
B|----------------------------------------------|
G|-666666-44444----14--13--11-9-----------------|
D|-xxxxxx-xxxxx----x---x---x--x-----------------|
A|-444444-22222----12--11--9--7-----------------|
E|----------------------------------------------|

e|----------------------------------------------|
B|----------------------------------------------|
G|-666666-44444--16--14--13--11--9-9--11--------|
D|-xxxxxx-xxxxx--x---x---x---x---x-x--x---------|
A|-444444-22222--14--12--11--9---7-7--9---------|
E|----------------------------------------------|

Guitarra 1

Estoy cansado de pedir perdon..
e|----------------------------------------------------------------------|
B|----------------------------------------------------------------------|
G|--666666-444444-2222222---------6666666-4444444-22222222-4444444------|
D|--666666-444444-2222222-2222222-6666666-4444444-22222222-4444444------|
A|--444444-222222-0000000-2222222-4444444-2222222-00000000-2222222------|
E|------------------------0000000---------------------------------------|

e|-----------------------------------------------------------------------|
B|-----------------------------------------------------------------------|
G|--666666-444444-2222222---------2222222-2222222--4///------------------|
D|--666666-444444-2222222-2222222-2222222-2222222--4///------------------|
A|--444444-222222-0000000-2222222-0000000-0000000--2///------------------|
E|------------------------0000000----------------------------------------|

Guitarra 2

e|------------------------------------------------------------------------|
B|------------------------------------------------------------------------|
G|--666666-444444-2222222---------6666666-4444444-2222--141414/-161616----|
D|--xxxxxx-xxxxxx-2222222-2222222-6666666-4444444-2222--x-x-x---x-x-x-----|
A|--444444-222222-0000000-2222222-4444444-2222222-0000--121212/-141414----|
E|------------------------0000000-----------------------------------------|

e|-----------------------------------------------------------------------|
B|-----------------------------------------------------------------------|
G|--666666-444444-2222222---------2222222-2222222--4///------------------|
D|--666666-444444-2222222-2222222-2222222-2222222--4///------------------|
A|--444444-222222-0000000-2222222-0000000-0000000--2///------------------|
E|------------------------0000000----------------------------------------|

Es magico...      Ese chispazo.........
     x1                         x 3
e|------------I------------------------------------------------------------|
B|------------I------------------------------------------------------------|
G|--4///------I-66666666--444444444--22222222-222222222--------------------|
D|--4///------I-66666666--444444444--22222222-222222222--------------------|
A|--2///------I-44444444--222222222--00000000-000000000--------------------|
E|------------I------------------------------------------------------------|

(opcional)

e|----------------|
B|----------------|
G|-4--6--9--------|
D|-4--6--9--------|
A|-2--4--7--------|
E|----------------|

Guitarra 2

    x 1
e|-------------I-----------------------------------------------------------|
B|-------------I-----------------------------------------------------------|
G|---4----4----I-66666666--4444444444--8999-11111111-1313-14-14------------|
D|--4-4--4-4---I-xxxxxxxx--xxxxxxxxxx--xxxx-x-x-x-x--x-x--x--x-------------|
A|-2----2------I-44444444--2222222222--6777-9-9-9-9--1111-12-12------------|
E|-------------------------------------------------------------------------|I

e|----------------------------------------------|
B|----------------------------------------------|
G|-666666-44444----14--13--11-9-----------------|
D|-xxxxxx-xxxxx----x---x---x--x-----------------|
A|-444444-22222----12--11--9--7-----------------|
E|----------------------------------------------|

e|----------------------------------------------|
B|----------------------------------------------|
G|-666666-44444--16--14--13--11--9-9--11--------|
D|-xxxxxx-xxxxx--x---x---x---x---x-x--x---------|
A|-444444-22222--14--12--11--9---7-7--9---------|
E|----------------------------------------------|

Esta guitarra no es opcional x 2

e|------------------|
B|------------------|
G|-11/13-11-11------|
D|-x----------------|
A|-9-/11-9--9-------|
E|------------------|


Falle otra vez......

Guitarra 1
e|-------------------------------------------|
B|-------------------------------------------|
G|-666-66--444-44--222-22-222-22-------------|
D|-666-66--444-44--222-22-222-22-------------|  x 3
A|-444-44--222-22--000-00-000-00-------------|
E|-------------------------------------------|


e|-------------------------------------------|
B|-------------------------------------------|
G|-666-66--444-44--2///----------------------|
D|-666-66--444-44--2///----------------------|  x 1
A|-444-44--222-22--0///----------------------|
E|-------------------------------------------|

Entra cuando la guitarra 1 empieza la tercera vuleta
Guitarra 2
e|--------------------------------------------|
B|--------------------------------------------|
G|-999-111111-1313-14-13-9--------------------|
D|-xxx-x-x-x--x-x--x--x--x--------------------|  x 1
A|-777-9-9-9--1111-12-11-7--------------------|
E|--------------------------------------------|

e|--------------------------------------------|
B|--------------------------------------------|
G|-999-111111--2------------------------------|
D|-xxx-x-x-x---2------------------------------|  x 1
A|-777-9-9-9---0------------------------------|
E|--------------------------------------------|

SOLO
Guitarra 1

e|-------------------------------------------|
B|-------------------------------------------|
G|-6-6---4-22------6-6--4-22--4--------------|
D|-6-6---4-22--2---6-6--4-22--2--------------| x 4
A|-4-4---2-00--2---4-4--2-00-----------------|
E|-------------0-----------------------------|

e|-----------------------------------------------------|
B|-----------------------------------------------------|
G|-9999-8/9-9999-8/9-----------------------------------|
D|-xxxx-x/x-xxxx-x/x------------------------------ x 3-|
A|-7777-6/7-7777-6/7-----------------------------------|
E|-----------------------------------------------------|

e|-------------------------------------------------|
B|-------------------------------------------------|
G|-9999-8/9--9-8-9---------------------------------|
D|-xxxx-x/x--x-x-x---------------------------------| x 1
A|-7777-6/7--7-6-7---------------------------------|
E|-------------------------------------------------|

Guitarra 2

e|---------------------------------------------------|
B|-10p9-10p9-10p9-10p9-10p9-10p9-10p9-10p9-10p9-10p9-|
G|---------------------------------------------------|
D|---------------------------------------------------|
A|---------------------------------------------------|
E|---------------------------------------------------|

e|-----------------------------------------------------|
B|-10p9-10p9-10p9-10p9-10p9-10p9-10p9------------------|
G|------------------------------------6h8-9p8p6-8h9/0--| x 1
D|-----------------------------------------------------|
A|-----------------------------------------------------|
E|-----------------------------------------------------|

e|----------------------------------------------------------|
B|---9-10-12-10-9--9-10-12-10-9--9-10-12-10-9--9-10-12-10-9-|
G|-9--------------9-------------9-------------9-------------|
D|----------------------------------------------------------| x 2
A|----------------------------------------------------------|
E|----------------------------------------------------------|

e|----------------------------------------------------------|
B|----------------------------------------------------------|
G|--99999-9-8--99999-9-8--99999-9-8--10-10-10-9-9-9---------| x 1
D|----------------------------------------------------------|
A|----------------------------------------------------------|
E|----------------------------------------------------------|

e|----------------------------------------------------------|
B|------------------------999999--12--10---12---------------|
G|--99999-9-8--99999-9-8------------------------------------| x 1
D|----------------------------------------------------------|
A|----------------------------------------------------------|
E|----------------------------------------------------------|

Estoy cansado de pedir perdon..
e|----------------------------------------------------------------------|
B|----------------------------------------------------------------------|
G|--666666-444444-2222222---------6666666-4444444-22222222-4444444------|
D|--666666-444444-2222222-2222222-6666666-4444444-22222222-4444444------|
A|--444444-222222-0000000-2222222-4444444-2222222-00000000-2222222------|
E|------------------------0000000---------------------------------------|


e|----------------------------------------------------------------------|
B|----------------------------------------------------------------------|
G|--666666-444444-2222222---------2222222-2222222--4///-----------------|
D|--666666-444444-2222222-2222222-2222222-2222222--4///-----------------|
A|--444444-222222-0000000-2222222-0000000-0000000--2///-----------------|
E|------------------------0000000---------------------------------------|

Es magico...
     x1                         x 3
e|---------I-----------------------------------------------------------|
B|---------I-----------------------------------------------------------|
G|--444444-I-66666666--444444444--22222222-222222222-------------------|
D|--444444-I-66666666--444444444--22222222-222222222-------------------|
A|--222222-I-44444444--222222222--00000000-000000000-------------------|
E|---------I-----------------------------------------------------------|
Final

e|--------------|
B|--------------|
G|-4--4--6------|
D|-4--4--6------|
A|-2--2--4------|
E|--------------|





Comments


Popular Division Minuscula tabs & chords
Sognare 1 Chords
Cada Martes Tabs
Cursi 5 Tabs
Hot Road Tabs
Me Tome Una Pastilla Tabs
Que No Quede Huella Tabs
Soundtrack Tabs
Todo Tabs
Vamos A Jugar! Tabs
La Ultima Y Me Voy Ukulele


Song lyrics



↑ Back to top | Tablatures and chords are parodies/interpretations of the original songs. You may use it for private study, scholarship, research or language learning purposes only
© 2014 AZChords.com Contact us | Privacy policy | DMCA | Add/correct tabs | Request tabs | Top 50 tabs