» » »

Divinyls, I Touch Myself Tabs (ver.3)

Artists:  A B C D E F G H I J K L M N O P Q R S T U V W X Y Z # 

I Touch Myself Tabs (ver.3)

Divinyls Tabs
Rating:
0/5 (0 votes)
I Touch Myself lessons Tabs too difficult? Try these video lessons and learn fast
                Intro: C5

Verse

C	Dm
I love myself
Bb	C
I want you to love me
Am7	Dm
When I'm feelin' down
Bb	C
I want you above me
C	Dm
I search myself
Bb	C
I want you to find me
Am7	Dm
I forget myself
Bb	C
I want you to remind me

During the chorus I usually play a little line that 
I think fits quite well with the song. It goes like this;

   E  E  E  Q  E  E  E    E  E  E  E  E  E  E  E
e|-------1-----0-------|-----1-----1-----1-----1-|
B|----1-----------1----|-----1-----1-----1-----1-|
G|---------------------|-------------------------|
D|-------------------3-|-(3)----2-----0----------|
A|-1--------3----------|--------------------3----|
E|---------------------|-------------------------|

And during the fourth line of the chorus:
   
   E  E  E  Q  E  E  E    E  E  E  E  H
e|-------1-----0-------|--------1--1-(1)-|
B|----1-----------1----|-----1-----1-(1)-|
G|---------------------|-----------3-(3)-|
D|---------------------|-----3-----3-(3)-|
A|-1--------3--------0-|-(0)-------1-(1)-|
E|---------------------|-----------------|
Chorus:

Bbsus2	C	F 
I don't want anybody else
Bbsus2	C
When I think about you
F
I touch myself
Bbsus	C	F/A	Bbsus2
I don't want anybody else
		C   
Oh no, oh no, oh no

Bridge:

Play all chords as bar chords on the A string.

Cm7
You're the one who makes me come honey
Eb
You're the sun who makes me shine
F7
When you're around I'm always laughing
Ab
I want to make you mine

Verse:

C	Dm
I close my eyes
Bb	C
And see you before me
Am7	Dm
Think I would die
Bb	C
If you were to ignore me
C	Dm
A fool could see
Bb	C
Just how much I adore you
Am7	Dm
I get down on my knees
Bb	C
I'd do anything for you

Chorus

Solo: Cm7

   Q  Q   Q  Q     Q  Q  E.  E. E    Q   Q   Q  Q     Q  Q  E.  E. E
e|----8~-(8)-8~-|-(8)-8--11-----8-|-(8)--8~-(8)-8~-|-(8)-8--11-----8-|
B|--------------|------------11---|----------------|------------11---|
G|--------------|-----------------|----------------|-----------------|
D|--------------|-----------------|----------------|-----------------|
A|--------------|-----------------|----------------|-----------------|
E|--------------|-----------------|----------------|-----------------|

   Q  Q   Q  Q     Q  Q  E.  E. E     E   E  E  E  Q   Q   E    E  H.     E 
e|----8~-(8)-8~-|-(8)-8--17--15----|------16-15----16--15-----|-----------------|
B|--------------|---------------16-|-(16)-------16---------16-|----11b13-(13)---|
G|--------------|------------------|--------------------------|-----------------|
D|--------------|------------------|--------------------------|-----------------|
A|--------------|------------------|--------------------------|-----------------|
E|--------------|------------------|--------------------------|-----------------|

Verse

C	Dm
I love myself
Bb	C
I want you to love me
Am7	Dm
When I'm feelin' down
Bb	C
I want you above me
C	Dm
I search myself
Bb	C
I want you to find me
Am7	Dm
I forget myself
Bb	C
I want you to remind me

Chorus

Bridge 2:
    Pm--   Pm Pm    Pm  Pm  Pm  Pm
   E E E E E E E E   E E E E E E E E
e|-----------------|-----------------|
B|-6-----6---5---6-|---5---6---5---6-|  X4 (Skip the second bar the fourth
G|-5-----5---5---5-|---5---5---5---5-|                Time)
D|-3-3-3-3-3-3-3-3-|-3-3-3-3-3-3-3-3-|
A|-----------------|-----------------|
E|-----------------|-----------------|


Coda:

| Bbsus2 | C | F | F |
Repeat and fade out.
            

comments powered by Disqus
↑ Back to top | Divinyls Tabs for I Touch Myself. Lyrics for acoustic guitar and electric guitar. Tablatures and chords are parodies/interpretations of the original songs. You may use it for private study, scholarship, research or language learning purposes only