>
 >
I Touch Myself

I Touch Myself Guitar Tabs

Divinyls - I Touch Myself chords, tabs, tablatures, lyrics

Guitar lessons | Add/correct | Request | Top 50 tabs Artists:  A B C D E F G H I J K L M N O P Q R S T U V W X Y Z 0-9

I Touch Myself Guitar Tabs – Divinyls

CD, Sheet music, Poster

Do you like I Touch Myself? Share with your friends now
ChordsChords v2TabsTabs v2Tabs v3Ukulele
                                 I TOUCH MYSELF
                             As recorded by Divinyls
                         (From the 1991 Album DIVINYLS)

Words and Music by Divinyls
Arranged by Divinyls
      C                   Dm                   Bb                    F
 x 3 2 0 1 0          x x 0 2 3 1          x 1 3 3 3 x          1 3 3 2 1 1

      D#                F(type 2)               G#
 x x 1 3 4 3          x x 3 2 1 1          4 3 1 1 1 x

This is from my powertab so use that if you can!! PLEASE RATE & COMMENT!
I don't mind personally about distributing this, this is made for
ultimat-guitar.com

*/Verse/*
 Moderate Q=110

Strumming Pattern
per line
|*/*  |
|c cqq|
*-accented
/-chord change
c-crotchet strum
q-quaver strum

C	Dm
I love myself
Bb	C
I want you to love me
C	Dm
When I'm feelin' down
Bb	C
I want you above me
C	Dm
I search myself
Bb	C
I want you to find me
C	Dm
I forget myself
Bb	C
I want you to remind me



*/Chorus/*
Just sustain each chord till change

Bb		F
I don't want anybody else
Bb	
When I think about you
F
I touch myself
Bb		F	Bb
I don't want anybody else
		
Oh no, oh no, oh no

(Play the following over it better to play this if solo IMHO)

|--------------|----------------|---------------|----------------|
|--------------|----------------|---------------|----------------|
|--------------|-----------0----|---------------|-----------0----|
|-3--3--3-2--3-|-(3)--3--3----3-|-(3)--3-3-2--3-|-(3)--3--3----3-|
|--------------|----------------|---------------|----------------|
|--------------|----------------|---------------|----------------|


|----------------|-----------|
|----------------|-----------|
|----------------|-----------|
|-(3)--3--3-2--3-|-(3)--3----|
|----------------|-----------|
|----------------|-----------|


*/Post Chorus/*
 Play Bb twice during this time and C once
 Bb     C


*/Bridge/*
  Play each chord once for the whole line and then play it again 
before the change except for last which you strum three times

C
You're the one who makes me come honey
D#
You're the sun who makes me shine
F(type 2)
When you're around I'm always laughing
G#
I want to make you mine

  This played in background play the chords if solo and add 
the lead bit at end

  Gtr I
  PM PM PM PM PM PM PM PM   PM PM PM PM PM PM PM PM
|-------------------------|---------------------------|
|-------------------------|---------------------------|
|-------------------------|---------------------------|
|-------------------------|---------------------------|
|-3--3--3--3--3--3--3--3--|-3--3--3--3--3--3--3--3----|
|-------------------------|---------------------------|


  PM PM PM PM PM PM PM PM   PM PM PM PM PM PM PM PM
|-------------------------|---------------------------|
|-------------------------|---------------------------|
|-------------------------|---------------------------|
|-1--1--1--1--1--1--1--1--|-1--1--1--1--1--1--1--1----|
|-------------------------|---------------------------|
|-------------------------|---------------------------|


  PM PM PM PM PM PM PM PM   PM PM PM PM PM PM PM PM
|-------------------------|---------------------------|
|-------------------------|---------------------------|
|-------------------------|---------------------------|
|-------------------------|---------------------------|
|-3--3--3--3--3--3--3--3--|-3--3--3--3--3--3--3--3----|
|-------------------------|---------------------------|
                                    
  PM PM PM PM PM PM PM PM   PM PM PM PM PM            ~
|-------------------------|----------------10b14-10p==8----|
|-------------------------|--------------------------------|
|-1--1--1--1--1--1--1--1--|-1--1--1--1--1------------------|
|-------------------------|--------------------------------|
|-------------------------|--------------------------------|
|-------------------------|--------------------------------|


*/Solo/*
  Continually play C Chord in the background at semiquaver 
timing
 
      ~        ~
|-----8--------8----|-----8--(8)--11----------8-----|
|-------------------|------------------11-----------|
|-------------------|-------------------------------|
|-------------------|-------------------------------|
|-------------------|-------------------------------|
|-------------------|-------------------------------|



|-(8)------8--------8----|-----8----11----------8--|
|------------------------|----------------11-------|
|------------------------|-------------------------|
|------------------------|-------------------------|
|------------------------|-------------------------|
|------------------------|-------------------------|


|-(8)------8--------8----|-----8----17--15----------|
|------------------------|-------------------16-----|
|------------------------|--------------------------|
|------------------------|--------------------------|
|------------------------|--------------------------|
|------------------------|--------------------------|


|-------16--15------16---15-------|-------------------|
|-(16)----------16------------16--|-------------------|
|---------------------------------|---15--17----------|
|---------------------------------|-------------------|
|---------------------------------|-------------------|
|---------------------------------|-------------------|


*/1st Fill @ 2:04/*
 
|-8--11--13-(13)b15----|
|----------------------|
|----------------------|
|----------------------|
|----------------------|
|----------------------|


*/2nd Fill @ 2:14/*
                  
|-8---------------------|-8S12-12-12b16----|
|-----------------10-12-|------------------|
|---------9-10-12-------|------------------|
|---10-12---------------|------------------|
|-----------------------|------------------|
|-----------------------|------------------|


/*2nd Bridge*/
  Play C once as intro for a minum then play twice as a 
quaver and each subsequent chord once as a quaver and 
repeat 3x on forth repeat break at Dm position and 
strum C in quaver time.

   C   
   C F(type2) Dm F(type2) C F(type 2)	x3
   C F(type2) C

That's all there is!





Comments


Popular Divinyls tabs & chords
Boys In Town Bass Tabs
Boys In Town Chords
I Touch Myself 1 Chords
Im Jealous Chords
Pleasure And Pain Chords
I Touch Myself 1 Tabs
Underworld Tabs
Boys In Town Ukulele
I Touch Myself Ukulele
Science Fiction Ukulele


Song lyrics



↑ Back to top | Tablatures and chords are parodies/interpretations of the original songs. You may use it for private study, scholarship, research or language learning purposes only
© 2014 AZChords.com Contact us | Privacy policy | DMCA | Add/correct tabs | Request tabs | Top 50 tabs