>
 >
Unhallowed

Unhallowed Guitar Tabs

Dissection - Unhallowed chords, tabs, tablatures, lyrics

Guitar lessons | Add/correct | Request | Top 50 tabs Artists:  A B C D E F G H I J K L M N O P Q R S T U V W X Y Z 0-9

Unhallowed Guitar Tabs – Dissection

CD, Sheet music, Poster

Do you like Unhallowed? Share with your friends now
Tabs
Ver. 1.0 (02/04/22)

Symbols used in this tablature
        h : Hammer on            p : Pulling off
        g : Grissando            s : Slide
        c,hc,1hc : Bend          tr : Trill

Tuning : normal (6 : E)

*** time - 0:00
Part_A
#||-----------------------------7-------------------------|----------------------------6-------------------------|
#||-----------------------------8-------------------------|----------------------------7-------------------------|
#||o-------6------------6-------9-----------------6-------|-------6------------6-------8-----------------6-------|
#||o--|=|=|=|=|=|--|=|=|=|=|=|--9------------|=|=|=|=|=|--|--|=|=|=|=|=|--|=|=|=|=|=|--8------------|=|=|=|=|=|--|
#||---7-7-7-7-7-7--7-7-7-7-7-7--7------------7-7-7-7-7-7--|--6-6-6-6-6-6--6-6-6-6-6-6--6------------6-6-6-6-6-6--|
#||-------------------------------------------------------|------------------------------------------------------|
 ||   1            2            3            4            |  1            2            3            4            |
 ||                                                       |                                                      |
 || 2 x Only                                              |                                                      |
#||-------------------------------------------------------|------------------------------------------------------|
#||-------------------------------------------------------|---------------------------------6------------6-------|
#||o-------6------------6------------6------------6-------|-------6------------6-------|=|=|=|=|=|--|=|=|=|=|=|--|
#||o--|=|=|=|=|=|--|=|=|=|=|=|--|=|=|=|=|=|--|=|=|=|=|=|--|--|=|=|=|=|=|--|=|=|=|=|=|--8-8-8-8-8-8--8-8-8-8-8-8--|
#||---7-7-7-7-7-7--7-7-11111111-101010101010-101010101010-|--6-6-6-6-6-6--6-6-6-6-6-6----------------------------|
#||-------------------------------------------------------|------------------------------------------------------|
      1            2            3            4               1            2            3            4


|-------------------|------------------|
|-------------------|------------------|
|-----------------o-//-----------------|
|------------------//-o----------------|
|-------------------|------------------|
|-------------------|------------------|
|                   |                  |
|-------------------|------------------|
|-------------------|------------------|
|-----------------o-//-----------------|
|------------------//-o----------------|
|-------------------|------------------|
|-------------------|------------------|


|----------------------------8-------------------------|----------------------------7-------------------------|
|----------------------------8-------------------------|----------------------------8-------------------------|
|----------------------------9-------------------------|-------6------------6-------9-----------------6-------|
|-------6------------6-------10----------------6-------|--|=|=|=|=|=|--|=|=|=|=|=|--9------------|=|=|=|=|=|--|
|--|=|=|=|=|=|--|=|=|=|=|=|--10-----------|=|=|=|=|=|--|--7-7-7-7-7-7--7-7-7-7-7-7--7------------7-7-7-7-7-7--|
|--8-8-8-8-8-8--8-8-8-8-8-8--8------------8-8-8-8-8-8--|------------------------------------------------------|
|  1            2            3            4            |  1            2            3            4            |
|                                                      |                                                      |
|                                                      |                                                      |
|------------------------------------------------------|------------------------------------------------------|
|------------------------------------------------------|-------6------------6---------------------------------|
|--------------------6------------6------------6-------|--|=|=|=|=|=|--|=|=|=|=|=|-------6------------6-------|
|-------6-------|=|=|=|=|=|--|=|=|=|=|=|--|=|=|=|=|=|--|--9-9-9-9-9-9--7-7-7-7-7-7--|=|=|=|=|=|--|=|=|=|=|=|--|
|--|=|=|=|=|=|------7-7-7-7--6-6-6-6-6-6--9-9-9-9-9-9--|----------------------------101010101010-9-9-9-9-9-9--|
|--8-8-8-8-8-8--8-8------------------------------------|------------------------------------------------------|
   1            2            3            4               1            2            3            4

 ______________
|1.
|----------------------------8-------------------------|-------------------------------------------------------||
|----------------------------8-------------------------|-------------------------------------------------------||
|----------------------------9-------------------------|------------------------------------------------------o||
|-------6------------6-------10----------------6-------|-------6------------6------------6------------6-------o||
|--|=|=|=|=|=|--|=|=|=|=|=|--10-----------|=|=|=|=|=|--|--|=|=|=|=|=|--|=|=|=|=|=|--|=|=|=|=|=|--|=|=|=|=|=|---||
|--8-8-8-8-8-8--8-8-8-8-8-8--8------------8-8-8-8-8-8--|--7-7-7-7-7-7--5-5-5-5-5-5--3-3-3-3-3-3--2-2-2-2-2-2---||
   1            2            3            4               1            2            3            4


 ______________
|2.
|----------------------------8-------------------------|
|----------------------------8-------------------------|
|----------------------------9-------------------------|
|-------6------------6-------10----------------6-------|
|--|=|=|=|=|=|--|=|=|=|=|=|--10-----------|=|=|=|=|=|--|
|--8-8-8-8-8-8--8-8-8-8-8-8--8------------8-8-8-8-8-8--|
|  1            2            3            4            |
|                                                      |
|                                                      |
|------------------------------------------------------|
|------------------------------------------------------|
|--------------------6------------6------------6-------|
|-------6-------|=|=|=|=|=|--|=|=|=|=|=|--|=|=|=|=|=|--|
|--|=|=|=|=|=|------7-7-7-7--6-6-6-6-6-6--6-6-6-6-6-6--|
|--8-8-8-8-8-8--8-8------------------------------------|
   1            2            3            4             


|-----------------------------|-----------------------------|#
|---__3__----__3__----__3__---|------------__3__------------|#
|--|--|--|--|--|--|--|--|--|--|-----------|--|--|-----------|#
|--9--9--9--7--7--7--5--5--5--|--9--------7-h9-p7--5--------|#
|-----------------------------|-----------------------------|#
|-----------------------------|-----------------------------|#
|  1        2        3        |  1        2        3        |
|                             |                             |
|                             |                             |
|-----------------------------|-----------------------------|#
|-----------------------------|-----------------------------|#
|-----------------------------|-----------------------------|#
|--9--------7--------5--------|--9--------7--------5--------|#
|--9--------7--------5--------|--9--------7--------5--------|#
|--7--------5--------3--------|--7--------5--------3--------|#
   1        2        3           1        2        3    (End of Part_A)




*** time - 0:33
Part_B
  2 times Repeat
#||----__3__----__3__----__3__----__3__---|---__3__----__3__----__3__----__3__-----||#
#||---|--|--|--|--|--|--|--|--|--|--|--|--|--|--|--|--|--|--|--|--|--|--|--|--|----||#
#||o--------4--5--------------4--3--------|--------4--5--------------4--7---------o||#
#||o-----5--------6--------5--------4-----|-----5--------6--------5--------8------o||#
#||---7--------------8--7--------------6--|--7--------------8--7--------------10---||#
#||---------------------------------------|----------------------------------------||#
 ||   1        2        3        4        |  1        2        3        4          ||
 ||                                       |                                        ||
 ||                                       |                                        ||
#||---7--------8--------7--------6--------|--7--------8--------7--------10---------||#
#||---8--------9--------8--------7--------|--8--------9--------8--------11---------||#
#||o--9--------10-------9--------8--------|--9--------10-------9--------12--------o||#
#||o--9--------10-------9--------8--------|--9--------10-------9--------12--------o||#
#||---7--------8--------7--------6--------|--7--------8--------7--------10---------||#
#||---------------------------------------|----------------------------------------||#
      1        2        3        4           1        2        3        4   (End of Part_B)




*** time - 0:40
Part_C
#||---7---7----7---7----7---7----7---7----|--7---7----7---7----7---7----6---6----|
#||---8---8----8---8----8---8----8---8----|--8---8----8---8----8---8----7---7----|
#||o--9---9----9---9----9---9----9---9----|--9---9----9---9----9---9----8---8----|
#||o--9---9----9---9----9---9----9---9----|--9---9----9---9----9---9----8---8----|
#||---7---7----7---7----7---7----7---7----|--7---7----7---7----7---7----6---6----|
#||---------------------------------------|--------------------------------------|
 ||   1        2        3        4        |  1        2        3        4        |
 ||                                       |                                      |
 ||                                       |                                      |
#||---------------------------------------|--------------------------------------|
#||---------------------------------------|--------------------------------------|
#||o--------------------------------------|--------------------------------------|
#||o------5--------5--------5--------5----|------5--------4--------4--------4----|
#||---7--------7--------7--------7--------|--7--------7--------7--------6--------|
#||---------------------------------------|--------------------------------------|
      1        2        3        4           1        2        3        4

 ______________
|1.3.
|--7---7----7---7----7---7----7---7----|--9---9----9---9----6---6----6---6-----||
|--8---8----8---8----8---8----8---8----|--10--10---10--10---7---7----7---7-----||
|--9---9----9---9----9---9----9---9----|--11--11---11--11---8---8----8---8----o||
|--9---9----9---9----9---9----9---9----|--11--11---11--11---8---8----8---8----o||
|--7---7----7---7----7---7----7---7----|--9---9----9---9----6---6----6---6-----||
|--------------------------------------|---------------------------------------||
|  1        2        3        4        |  1        2        3        4         ||
|                                      |                                       ||
|                                      |                                       ||
|--------------------------------------|---------------------------------------||
|--------------------------------------|---------------------------------------||
|--------------------------------------|--------------------------------------o||
|------5--------5--------5--------5----|------7--------7--------10-------9----o||
|--7--------7--------7--------7--------|--9--------9--------6--------6---------||
|--------------------------------------|---------------------------------------||
   1        2        3        4           1        2        3        4


 ______________
|2.4.
|--7---7----7---7----7---7----7---7----|--9---9----9---9-----------------------||
|--8---8----8---8----8---8----8---8----|--10--10---10--10----------------------||
|--9---9----9---9----9---9----9---9----|--11--11---11--11----_____3_____------o||
|--9---9----9---9----9---9----9---9----|--11--11---11--11---|-----|-----|-----o||
|--7---7----7---7----7---7----7---7----|--9---9----9---9----------7-----6------||
|--------------------------------------|--------------------8------------------||
|  1        2        3        4        |  1        2        3        4         ||
|                                      |                                       ||
|                                      |                                       ||
|--------------------------------------|---------------------------------------||
|--------------------------------------|---------------------------------------||
|--------------------------------------|---------------------_____3_____------o||
|------5--------5--------5--------5----|------7--------7----|-----|-----|-----o||
|--7--------7--------7--------7--------|--9--------9--------6-----10----9------||
|--------------------------------------|---------------------------------------||
   1        2        3        4           1        2        3        4    (End of Part_C)




*** time - 1:00
Part_D
#||---------------------------------------|--------------------------------------|-----|-----|
#||----------------------__3__------------|---__3__----------------------__3__---|-----|-----|
#||o---__3__----__3__---|--|--|---__3__---|--|--|--|---__3__----__3__---|--|--|--|---o-//----|
#||o--|--|--|--|--|--|--5--5--5--|--|--|--|--4--4--4--|--|--|--|--|--|--4--4--4--|----//-o---|
#||---3--3--3--3--3--3-----------3--3--3--|-----------3--3--3--6--6--6-----------|-----|-----|
#||---------------------------------------|--------------------------------------|-----|-----|
 ||   1        2        3        4        |  1        2        3        4        |     |     |
 ||                                       |                                      |     |     |
 ||                                       |                                      |     |     |
#||---------------------------------------|--------------------------------------|-----|-----|
#||---------------------------------------|--------------------------------------|-----|-----|
#||o---__3__----__3__----__3__----__3__---|----------------o-/-------------------|---o-//----|
#||o--|--|--|--|--|--|--|--|--|--|--|--|--|-----------------/-o------------------|----//-o---|
#||---3--3--3--3--3--3--3--3--3--3--3--3--|--------------------------------------|-----|-----|
#||---------------------------------------|--------------------------------------|-----|-----|
      1        2        3        4           1        2        3        4


|--------------------------------------|--------------------------------------|-----|-----|
|--------------------------------------|--------------------------------------|-----|-----|
|---------------------__3__------------|---__3__----------------------__3__---|---o-//----|
|---__3__----__3__---|--|--|---__3__---|--|--|--|---__3__----__3__---|--|--|--|----//-o---|
|--|--|--|--|--|--|--2--2--2--|--|--|--|--1--1--1--|--|--|--|--|--|--1--1--1--|-----|-----|
|--0--0--0--0--0--0-----------0--0--0--|-----------0--0--0--3--3--3-----------|-----|-----|
|  1        2        3        4        |  1        2        3        4        |     |     |
|                                      |                                      |     |     |
|                                      |                                      |     |     |
|--------------------------------------|--------------------------------------|-----|-----|
|--------------------------------------|--------------------------------------|-----|-----|
|---------------------__3__------------|---__3__----------------------__3__---|---o-//----|
|---__3__----__3__---|--|--|---__3__---|--|--|--|---__3__----__3__---|--|--|--|----//-o---|
|--|--|--|--|--|--|--2--2--2--|--|--|--|--1--1--1--|--|--|--|--|--|--1--1--1--|-----|-----|
|--0--0--0--0--0--0-----------0--0--0--|-----------0--0--0--3--3--3-----------|-----|-----|
   1        2        3        4           1        2        3        4


|--------------------------------------|--------------------------------------|
|---------------------__3__------------|---__3__----------------------__3__---|
|---__3__----__3__---|--|--|---__3__---|--|--|--|---__3__----__3__---|--|--|--|
|--|--|--|--|--|--|--5--5--5--|--|--|--|--4--4--4--|--|--|--|--|--|--4--4--4--|
|--3--3--3--3--3--3-----------3--3--3--|-----------3--3--3--6--6--6-----------|
|--------------------------------------|--------------------------------------|
|  1        2        3        4        |  1        2        3        4        |
|                                      |                                      |
|                                      |                                      |
|--------------------------------------|--------------------------------------|
|--------------------------------------|--------------------------------------|
|---__3__----__3__----__3__----__3__---|----------------o-/-------------------|
|--|--|--|--|--|--|--|--|--|--|--|--|--|-----------------/-o------------------|
|--3--3--3--3--3--3--3--3--3--3--3--3--|--------------------------------------|
|--------------------------------------|--------------------------------------|
   1        2        3        4           1        2        3        4


|--------------------------------------|--------------------------------------|
|---------------------__3__------------|---__3__----------------------__3__---|
|---__3__----__3__---|--|--|---__3__---|--|--|--|---__3__----__3__---|--|--|--|
|--|--|--|--|--|--|--5--5--5--|--|--|--|--4--4--4--|--|--|--|--|--|--4--4--4--|
|--3--3--3--3--3--3-----------3--3--3--|-----------2--2--2--6--6--6-----------|
|--------------------------------------|--------------------------------------|
|  1        2        3        4        |  1        2        3        4        |
|                                      |                                      |
|                                      |                                      |
|--------------------------------------|--------------------------------------|
|--------------------------------------|------------------------------__3__---|
|---__3__----__3__----__3__----__3__---|---__3__----__3__----__3__---|--|--|--|
|--|--|--|--|--|--|--|--|--|--|--|--|--|--|--|--|--|--|--|--|--|--|--4--4--4--|
|--3--3--3--3--3--3--3--3--3--3--3--3--|--2--2--2--2--2--2--6--6--6-----------|
|--------------------------------------|--------------------------------------|
   1        2        3        4           1        2        3        4


|--------------------------------------|--------------------------------------|
|---------------------__3__------------|---__3__----------------------__3__---|
|---__3__----__3__---|--|--|---__3__---|--|--|--|---__3__----__3__---|--|--|--|
|--|--|--|--|--|--|--9--9--9--|--|--|--|--8--8--8--|--|--|--|--|--|--8--8--8--|
|--7--7--7--7--7--7-----------7--7--7--|-----------7--7--7--10-10-10----------|
|--------------------------------------|--------------------------------------|
|  1        2        3        4        |  1        2        3        4        |
|                                      |                                      |
|                                      |                                      |
|--------------------------------------|--------------------------------------|
|--------------------------------------|--------------------------------------|
|---------------------__3__------------|---__3__----------------------__3__---|
|---__3__----__3__---|--|--|---__3__---|--|--|--|---__3__----__3__---|--|--|--|
|--|--|--|--|--|--|--2--2--2--|--|--|--|--1--1--1--|--|--|--|--|--|--1--1--1--|
|--0--0--0--0--0--0-----------0--0--0--|-----------0--0--0--3--3--3-----------|
   1        2        3        4           1        2        3        4


|--------------------7-----5-----5-----|--------------------7-----8-----8-----|#
|--------------------8-----6-----6-----|--------------------8-----9-----9-----|#
|--------------------9-----7-----7-----|--------------------9-----10----10----|#
|--------------------9-----7-----7-----|--------------------9-----10----10----|#
|--7-7-7-7--7-7-7-7--7-----5-----5-----|--7-7-7-7--7-7-7-7--7-----8-----8-----|#
|--------------------------------------|--------------------------------------|#
|  1        2        3        4        |  1        2        3        4        |
|                                      |                                      |
|                                      |                                      |
|--------------------7-----5-----5-----|--------------------7-----8-----8-----|#
|--------------------8-----6-----6-----|--------------------8-----9-----9-----|#
|--------------------9-----7-----7-----|--------------------9-----10----10----|#
|--------------------9-----7-----7-----|--------------------9-----10----10----|#
|--------------------7-----5-----5-----|--------------------7-----8-----8-----|#
|--0-0-0-0--0-0-0-0--------------------|--0-0-0-0--0-0-0-0--------------------|#
   1        2        3        4           1        2        3        4    (End of Part_D)




*** time - 1:19
Part_C'
// It is fundamentally the same as Part_C.
// Upper row is x2 beat.
// The bar of the 4th last, Both part play upper row.
(End of Part_C')




*** time - 1:42
Part_E
#||---------------------------------------|--------------------------------------|
#||---------------------------------------|--------------------------------------|
#||o--------------------------------------|--------------------------------------|
#||o--4-4-4-4--4-4-4-4--4-4-4-4--4-4-4-4--|--3-3-3-3--3-3-3-3--3-3-3-3--3-3-3-3--|
#||---2-2-2-2--2-2-2-2--2-2-2-2--2-2-2-2--|--2-2-2-2--2-2-2-2--2-2-2-2--2-2-2-2--|
#||---------------------------------------|--------------------------------------|
 ||   1        2        3        4        |  1        2        3        4        |
 ||                                       |                                      |
 ||                                       |                                      |
#||---------------------------------------|--------------------------------------|
#||---------------------------------------|--------------------------------------|
#||o--------------------------------------|--------------------------------------|
#||o--------------------4-4-4-4-----------|--3-3-3-3--------------------3-3-3-3--|
#||---2-2-2-2--2-2-2-2-----------2-2-2-2--|-----------2-2-2-2--5-5-5-5-----------|
#||---------------------------------------|--------------------------------------|
      1        2        3        4           1        2        3        4


|--------------------------------------|--------------------------------------|
|--------------------------------------|--------------------------------------|
|--------------------------------------|--------------------------------------|
|--0-0-0-0--0-0-0-0--0-0-0-0--0-0-0-0--|--3-3-3-3--3-3-3-3--4-4-4-4--5-5-5-5--|
|--2-2-2-2--2-2-2-2--2-2-2-2--2-2-2-2--|--2-2-2-2--2-2-2-2--2-2-2-2--2-2-2-2--|
|--------------------------------------|--------------------------------------|
|  1        2        3        4        |  1        2        3        4        |
|                                      |                                      |
|                                      |                                      |
|--------------------------------------|--------------------------------------|
|--------------------------------------|--------------------------------------|
|--------------------------------------|--------------------------------------|
|--------------------4-4-4-4-----------|--3-3-3-3-----------4-4-4-4--5-5-5-5--|
|--2-2-2-2--2-2-2-2-----------2-2-2-2--|-----------2-2-2-2--------------------|
|--------------------------------------|--------------------------------------|
   1        2        3        4           1        2        3        4


|--------------------------------------|--------------------------------------|
|--------------------------------------|--------------------------------------|
|--------------------------------------|--------------------------------------|
|--1-1-1-1--1-1-1-1--1-1-1-1--1-1-1-1--|--0-0-0-0--0-0-0-0--0-0-0-0--0-0-0-0--|
|--3-3-3-3--3-3-3-3--3-3-3-3--3-3-3-3--|--3-3-3-3--3-3-3-3--3-3-3-3--3-3-3-3--|
|--------------------------------------|--------------------------------------|
|  1        2        3        4        |  1        2        3        4        |
|                                      |                                      |
|                                      |                                      |
|--------------------------------------|--------------------------------------|
|--------------------------------------|--------------------------------------|
|--------------------------------------|--------------------------------------|
|--------------------5-5-5-5-----------|--4-4-4-4--------------------4-4-4-4--|
|--3-3-3-3--3-3-3-3-----------3-3-3-3--|-----------3-3-3-3--6-6-6-6-----------|
|--------------------------------------|--------------------------------------|
   1        2        3        4           1        2        3        4


 ______________
|1.
|--------------------------------------|---------------------------------------||
|--------------------------------------|---------------------------------------||
|--------------------------------------|--------------------------------------o||
|--5-5-5-5--5-5-5-5--------------------|--------------------------------------o||
|--------------------6-6-6-6--6-6-6-6--|--5-5-5-5--5-5-5-5--3-3-3-3--3-3-3-3---||
|--------------------------------------|---------------------------------------||
|  1        2        3        4        |  1        2        3        4         ||
|                                      |                                       ||
|                                      |                                       ||
|--------------------------------------|---------------------------------------||
|--------------------------------------|---------------------------------------||
|--------------------------------------|--------------------------------------o||
|--------------------5-5-5-5-----------|--4-4-4-4--------------------4-4-4-4--o||
|--3-3-3-3--3-3-3-3-----------3-3-3-3--|-----------3-3-3-3--6-6-6-6------------||
|--------------------------------------|---------------------------------------||
   1        2        3        4           1        2        3        4


 ______________         
|2.
|--------------------------------------|---------------------------------------||#
|--------------------------------------|---------------------------------------||#
|--------------------------------------|--7-7-7-7--7-7-7-7--8-8-8-8--8-8-8-8--o||#
|--5-5-5-5--5-5-5-5--------------------|--------------------------------------o||#
|--------------------6-6-6-6--6-6-6-6--|---------------------------------------||#
|--------------------------------------|---------------------------------------||#
|  1        2        3        4        |  1        2        3        4         ||
|                                      |                                       ||
|                                      |                                       ||
|--------------------------------------|---------------------------------------||#
|--------------------------------------|---------------------------------------||#
|--------------------------------------|--------------------------------------o||#
|--------------------5-5-5-5-----------|--4-4-4-4--------------------4-4-4-4--o||#
|--3-3-3-3--3-3-3-3-----------3-3-3-3--|-----------3-3-3-3--6-6-6-6------------||#
|--------------------------------------|---------------------------------------||#
   1        2        3        4           1        2        3        4    (End of Part_E)




*** time - 2:05
Part_F
#|--------------------------------------|--------------------------------------|
#|--------------------------------------|--------------------------------------|
#|--------------------------------------|--------------------10101010-10101010-|
#|-----------10101010-9-9-9-9--11111111-|--12121212-11111111-8-8-8-8--8-8-8-8--|
#|-----------8-8-8-8--7-7-7-7--9-9-9-9--|--10101010-9-9-9-9--------------------|
#|--0-0-0-0-----------------------------|--------------------------------------|
    1        2        3        4           1        2        3        4


 ______________
|1.3.
|--------------------------------------|--------------------------------------|
|--------------------------------------|--------------------------------------|
|--------------------------------------|--------------------------------------|
|-----------10101010-9-9-9-9--11111111-|--12121212-11111111----------8--------|
|-----------8-8-8-8--7-7-7-7--9-9-9-9--|--10101010-9-9-9-9--10101010-6--------|
|--0-0-0-0-----------------------------|--------------------8-8-8-8-----------|
   1        2        3        4           1        2        3        4


 ______________       
|2.4.
|--------------------------------------|--------------------------------------|#
|--------------------------------------|--------------------------------------|#
|--------------------------------------|--------------------------------------|#
|-----------10101010-9-9-9-9--11111212-|--11111111----------9-9-9-9--8--------|#
|-----------8-8-8-8--7-7-7-7--9-9-1010-|--9-9-9-9--10101010-7-7-7-7--6--------|#
|--0-0-0-0-----------------------------|-----------8-8-8-8--------------------|#
   1        2        3        4           1        2        3        4    (End of Part_F)




*** time - 2:28
Part_G
#||---------------------------------------|-----------------------------|
#||---------------------------------------|-----------------------------|
#||o--------------------------------------|-----------------------------|
#||o-----------8--------------------------|-----------------------------|
#||---7-----------------10-------7--------|--10-------7-----------------|
#||-------0--------0--------0--------0----|------0--------0----8---0----|
      1        2        3        4           1        2        3        


|--------------------------------------|---------------------------------------||#
|--------------------------------------|---------------------------------------||#
|--------------------------------------|--------------------------------------o||#
|-----------8--------------------------|--------------------------------------o||#
|--7-----------------10-------7--------|--10-------7-----------------7---6-----||#
|------0--------0--------0--------0----|------0--------0----8---0--------------||#
   1        2        3        4           1        2        3        4    (End of Part_G)




*** time - 2:36
Part_H
#|--------------------------------------|--------------------------------------|#
#|---__3__----__3__----__3__----__3__---|---__3__----__3__---------------------|#
#|--|--|--|--|--|--|--|--|--|--|--|--|--|--|--|--|--|--|--|--------------------|#
#|--4--4--4--4--4--4--4--4--4--4--4--4--|--4--4--4--4--4--4--3--------3--------|#
#|--------------------------------------|--------------------3--------3--------|#
#|--------------------------------------|--------------------1--------1--------|#
 |  1        2        3        4        |  1        2        3        4        |
 |                                      |                                      |
 |                                      |                                      |
#|--------------------------------------|--------------------------------------|#
#|--------------------------------------|--------------------------------------|#
#|---__3__----__3__----__3__----__3__---|---__3__----__3__---------------------|#
#|--|--|--|--|--|--|--|--|--|--|--|--|--|--|--|--|--|--|--|--3--------3--------|#
#|--2--2--2--2--2--2--2--2--2--2--2--2--|--2--2--2--2--2--2--3--------3--------|#
#|--------------------------------------|--------------------1--------1--------|#
    1        2        3        4           1        2        3        4   (End of Part_I)




*** time - 2:38
Part_I
#||---------------------------------------|--------------------------------------|-----|-----|
#||----------------------__3__------------|---__3__----------------------__3__---|-----|-----|
#||o---__3__----__3__---|--|--|---__3__---|--|--|--|---__3__----__3__---|--|--|--|---o-//----|
#||o--|--|--|--|--|--|--4--4--4--|--|--|--|--3--3--3--|--|--|--|--|--|--3--3--3--|----//-o---|
#||---2--2--2--2--2--2-----------2--2--2--|-----------2--2--2--5--5--5-----------|-----|-----|
#||---------------------------------------|--------------------------------------|-----|-----|
      1        2        3        4           1        2        3        4


|--------------------------------------|--------------------------------------|-----|------||#
|---------------------__3__------------|---__3__----------------------__3__---|-----|------||#
|---__3__----__3__---|--|--|---__3__---|--|--|--|---__3__----__3__---|--|--|--|---o-//----o||#
|--|--|--|--|--|--|--5--5--5--|--|--|--|--4--4--4--|--|--|--|--|--|--4--4--4--|----//-o---o||#
|--3--3--3--3--3--3-----------3--3--3--|-----------3--3--3--6--6--6-----------|-----|------||#
|--------------------------------------|--------------------------------------|-----|------||#
   1        2        3        4           1        2        3        4          (End of Part_I)




*** time - 2:54
Part_A'
#|----------------------------7-------------------------|----------------------------6-------------------------|
#|----------------------------8-------------------------|----------------------------7-------------------------|
#|-------6------------6-------9-------------------------|-------6------------6-------8-------------------------|
#|--|=|=|=|=|=|--|=|=|=|=|=|--9-------------------------|--|=|=|=|=|=|--|=|=|=|=|=|--8-------------------------|
#|--7-7-7-7-7-7--7-7-7-7-7-7--7-------------------------|--6-6-6-6-6-6--6-6-6-6-6-6--6-------------------------|
#|------------------------------------------------------|------------------------------------------------------|
 |  1            2            3            4            |  1            2            3            4            |
 |                                                      |                                                      |
 |                                                      |                                                      |
#|--7---------------------------------------------------|--6---------------------------------------------------|
#|--8---------------------------------------------------|--7---------------------------------------------------|
#|--9------------------------------6------------6-------|--8------------------------------6------------6-------|
#|--9-------------------------|=|=|=|=|=|--|=|=|=|=|=|--|--8-------------------------|=|=|=|=|=|--|=|=|=|=|=|--|
#|--7-------------------------7-7-7-7-7-7--7-7-7-7-7-7--|--6-------------------------6-6-6-6-6-6--6-6-6-6-6-6--|
#|------------------------------------------------------|------------------------------------------------------|
    1            2            3            4               1            2            3            4


|-------------------|------------------|
|-------------------|------------------|
|-----------------o-//-----------------|
|------------------//-o----------------|
|-------------------|------------------|
|-------------------|------------------|
|                   |                  |
|-------------------|------------------|
|-------------------|------------------|
|-----------------o-//-----------------|
|------------------//-o----------------|
|-------------------|------------------|
|-------------------|------------------|


|----------------------------8-------------------------|----------------------------7-------------------------|
|----------------------------8-------------------------|----------------------------8-------------------------|
|----------------------------9-------------------------|-------6------------6-------9-------------------------|
|-------6------------6-------10------------------------|--|=|=|=|=|=|--|=|=|=|=|=|--9-------------------------|
|--|=|=|=|=|=|--|=|=|=|=|=|--10------------------------|--7-7-7-7-7-7--7-7-7-7-7-7--7-------------------------|
|--8-8-8-8-8-8--8-8-8-8-8-8--8-------------------------|------------------------------------------------------|
|  1            2            3            4            |  1            2            3            4            |
|                                                      |                                                      |
|                                                      |                                                      |
|--8---------------------------------------------------|--7---------------------------------------------------|
|--8---------------------------------------------------|--8---------------------------------------------------|
|--9---------------------------------------------------|--9------------------------------6------------6-------|
|--10-----------------------------6------------6-------|--9-------------------------|=|=|=|=|=|--|=|=|=|=|=|--|
|--10------------------------|=|=|=|=|=|--|=|=|=|=|=|--|--7-------------------------7-7-7-7-7-7--7-7-7-7-7-7--|
|--8-------------------------8-8-8-8-8-8--8-8-8-8-8-8--|------------------------------------------------------|
   1            2            3            4               1            2            3            4


|----------------------------8-------------------------|------------------------------------------------------|
|----------------------------8-------------------------|------------------------------------------------------|
|----------------------------9-------------------------|------------------------------------------------------|
|-------6------------6-------10----------------6-------|-------6------------6------------6------------6-------|
|--|=|=|=|=|=|--|=|=|=|=|=|--10-----------|=|=|=|=|=|--|--|=|=|=|=|=|--|=|=|=|=|=|--|=|=|=|=|=|--|=|=|=|=|=|--|
|--8-8-8-8-8-8--8-8-8-8-8-8--8------------8-8-8-8-8-8--|--7-7-7-7-7-7--5-5-5-5-5-5--3-3-3-3-3-3--2-2-2-2-2-2--|
   1            2            3            4               1            2            3            4


|----------------------------7-------------------------|----------------------------6-------------------------|
|----------------------------8-------------------------|----------------------------7-------------------------|
|-------6------------6-------9-----------------6-------|-------6------------6-------8-----------------6-------|
|--|=|=|=|=|=|--|=|=|=|=|=|--9------------|=|=|=|=|=|--|--|=|=|=|=|=|--|=|=|=|=|=|--8------------|=|=|=|=|=|--|
|--7-7-7-7-7-7--7-7-7-7-7-7--7------------7-7-7-7-7-7--|--6-6-6-6-6-6--6-6-6-6-6-6--6------------6-6-6-6-6-6--|
|------------------------------------------------------|------------------------------------------------------|
|  1            2            3            4            |  1            2            3            4            |
|                                                      |                                                      |
|                                                      |                                                      |
|------------------------------------------------------|------------------------------------------------------|
|------------------------------------------------------|---------------------------------6------------6-------|
|-------6------------6------------6------------6-------|-------6------------6-------|=|=|=|=|=|--|=|=|=|=|=|--|
|--|=|=|=|=|=|--|=|=|=|=|=|--|=|=|=|=|=|--|=|=|=|=|=|--|--|=|=|=|=|=|--|=|=|=|=|=|--8-8-8-8-8-8--8-8-8-8-8-8--|
|--7-7-7-7-7-7--7-7-11111111-101010101010-101010101010-|--6-6-6-6-6-6--6-6-6-6-6-6----------------------------|
|------------------------------------------------------|------------------------------------------------------|
   1            2            3            4               1            2            3            4


|-------------------|------------------|
|-------------------|------------------|
|-----------------o-//-----------------|
|------------------//-o----------------|
|-------------------|------------------|
|-------------------|------------------|
|                   |                  |
|-------------------|------------------|
|-------------------|------------------|
|-----------------o-//-----------------|
|------------------//-o----------------|
|-------------------|------------------|
|-------------------|------------------|


|----------------------------8-------------------------|----------------------------7-------------------------|
|----------------------------8-------------------------|----------------------------8-------------------------|
|----------------------------9-------------------------|-------6------------6-------9-----------------6-------|
|-------6------------6-------10----------------6-------|--|=|=|=|=|=|--|=|=|=|=|=|--9------------|=|=|=|=|=|--|
|--|=|=|=|=|=|--|=|=|=|=|=|--10-----------|=|=|=|=|=|--|--7-7-7-7-7-7--7-7-7-7-7-7--7------------7-7-7-7-7-7--|
|--8-8-8-8-8-8--8-8-8-8-8-8--8------------8-8-8-8-8-8--|------------------------------------------------------|
|  1            2            3            4            |  1            2            3            4            |
|                                                      |                                                      |
|                                                      |                                                      |
|------------------------------------------------------|------------------------------------------------------|
|------------------------------------------------------|---------------------------------6------------6-------|
|--------------------6------------6------------6-------|-------6------------6-------|=|=|=|=|=|--|=|=|=|=|=|--|
|-------6-------|=|=|=|=|=|--|=|=|=|=|=|--|=|=|=|=|=|--|--|=|=|=|=|=|--|=|=|=|=|=|--9-9-9-9-9-9--9-9-9-9-9-9--|
|--|=|=|=|=|=|------7-7-7-7--6-6-6-6-6-6--6-6-6-6-6-6--|--7-7-7-7-7-7--7-7-7-7-7-7----------------------------|
|--8-8-8-8-8-8--8-8------------------------------------|------------------------------------------------------|
   1            2            3            4               1            2            3            4


|----------------------------8-------------------------|
|----------------------------8-------------------------|
|----------------------------9-------------------------|
|-------6------------6-------10----------------6-------|
|--|=|=|=|=|=|--|=|=|=|=|=|--10-----------|=|=|=|=|=|--|
|--8-8-8-8-8-8--8-8-8-8-8-8--8------------8-8-8-8-8-8--|
|  1            2            3            4            |
|                                                      |
|                                                      |
|------------------------------------------------------|
|------------------------------------------------------|
|--------------------6------------6------------6-------|
|-------6-------|=|=|=|=|=|--|=|=|=|=|=|--|=|=|=|=|=|--|
|--|=|=|=|=|=|------7-7-7-7--6-6-6-6-6-6--6-6-6-6-6-6--|
|--8-8-8-8-8-8--8-8------------------------------------|
   1            2            3            4


|-----------------------------|-----------------------------|#
|-----------------------------|-----------------------------|#
|-----------------------------|-----------------------------|#
|--9--------7--------5--------|--9--------7--------5--------|#
|--9--------7--------5--------|--9--------7--------5--------|#
|--7--------5--------3--------|--7--------5--------3--------|#
|  1        2        3        |  1        2        3        |
|                             |                             |
|                             |                             |
|-----------------------------|-----------------------------|#
|-----------------------------|-----------------------------|#
|-----------------------------|-----------------------------|#
|--9--------7--------5--------|--9--------7--------5--------|#
|--9--------7--------5--------|--9--------7--------5--------|#
|--7--------5--------3--------|--7--------5--------3--------|#
   1        2        3           1        2        3    (End of Part_A')




*** time - 3:26
Part_J
#||------------------------------|-----------------------------|-----------------------------|-----------------------------|
#||------------------------------|-----------------------------|-----------------------------|-----------------------------|
#||o------------__3__------------|-----------------------------|-----------------------------|-----------------------------|
#||o-----------|--|--|-----------|--9--------10-------9--------|--9--------------------------|-----------------------------|
#||---10-------9-h10p9--7--------|-----------------------------|-----------------------------|--9--------------------------|
#||------------------------------|-----------------------------|-----------------------------|-----------------------------|
 ||   1        2        3        |  1        2        3        |  1        2        3        |  1        2        3        |
 ||                              |                             |                             |                             |
 ||                              |                             |                             |                             |
#||------------------------------|--7--------------------------|-----------------------------|--6--------------------------|
#||------------------------------|--8--------------------------|-----------------------------|--7--------------------------|
#||o-----------------------------|--9---------__3__----__3__---|---__3__----__3__----__3__---|--8---------__3__----__3__---|
#||o---__3__----__3__----__3__---|--9--------|--|--|--|--|--|--|--|--|--|--|--|--|--|--|--|--|--8--------|--|--|--|--|--|--|
#||---|--|--|--|--|--|--|--|--|--|--7--------7--7--7--7--7--7--|--6--6--6--6--6--6--6--6--6--|--6--------6--6--6--6--6--6--|
#||---0--0--0--0--0--0--0--0--0--|-----------------------------|-----------------------------|-----------------------------|
      1        2        3           1        2        3           1        2        3           1        2        3        


|-----------------------------|-----------------------------|-----------------------------|-----------------------------|
|-----------------------------|-----------------------------|-----------------------------|-----------------------------|
|-----------------------------|-----------------------------|-----------------------------|-----------------------------|
|-----------------------------|--9--------10-------9--------|--9--------------------------|-----------------------------|
|--10----------p9----7--------|-----------------------------|-----------------------------|--9--------------------------|
|-----------------------------|-----------------------------|-----------------------------|-----------------------------|
|  1        2        3        |  1        2        3        |  1        2        3        |  1        2        3        |
|                             |                             |                             |                             |
|                             |                             |                             |                             |
|-----------------------------|--7--------------------------|-----------------------------|--6--------------------------|
|-----------------------------|--8--------------------------|-----------------------------|--7--------------------------|
|-----------------------------|--9---------__3__----__3__---|---__3__----__3__----__3__---|--8---------__3__----__3__---|
|---__3__----__3__----__3__---|--9--------|--|--|--|--|--|--|--|--|--|--|--|--|--|--|--|--|--8--------|--|--|--|--|--|--|
|--|--|--|--|--|--|--|--|--|--|--7--------7--7--7--7--7--7--|--6--6--6--6--6--6--6--6--6--|--6--------6--6--6--6--6--6--|
|--0--0--0--0--0--0--0--0--0--|-----------------------------|-----------------------------|-----------------------------|
   1        2        3           1        2        3           1        2        3           1        2        3        

 ______________
|1.
|-----------------------------|-----------------------------|-----------------------------|-----------------------------|
|-----------------------------|-----------------------------|-----------------------------|-----------------------------|
|-----------------------------|-----------------------------|-----------------------------|-----------------------------|
|-----------------------------|-----------9--------10-------|--9-----------------7--------|--5-----------------4--------|
|--10-------9--h10--p9--------|--7--------------------------|-----------------------------|-----------------------------|
|-----------------------------|-----------------------------|-----------------------------|-----------------------------|
|  1        2        3        |  1        2        3        |  1        2        3        |  1        2        3        |
|                             |                             |                             |                             |
|                             |                             |                             |                             |
|-----------------------------|-----------------------------|-----------------------------|-----------------------------|
|-----------------------------|-----------------------------|-----------------------------|-----------------------------|
|-----------------------------|-----------------------------|---__3__----__3__----__3__---|---__3__----__3__----__3__---|
|---__3__----__3__----__3__---|---__3__----__3__----__3__---|--|--|--|--|--|--|--|--|--|--|--|--|--|--|--|--|--|--|--|--|
|--|--|--|--|--|--|--|--|--|--|--|--|--|--|--|--|--|--|--|--|--7--7--7--7--7--7--7--7--7--|--7--7--7--7--7--7--7--7--7--|
|--8--8--8--8--8--8--8--8--8--|--8--8--8--8--8--8--8--8--8--|-----------------------------|-----------------------------|
   1        2        3           1        2        3           1        2        3           1        2        3        


|-----------------------------|-----------------------------|-----------------------------|------------------------------||
|-----------------------------|-----------------------------|-----------------------------|------------------------------||
|-----------------------------|-----------------------------|---------------9-------------|-----------------------------o||
|-----------------------------|-----------9--------10-------|--9--------------------------|--9--------------------------o||
|--10-------9--h10--p9--------|--7--------------------------|-----------------------------|------------------------------||
|-----------------------------|-----------------------------|-----------------------------|------------------------------||
|  1        2        3        |  1        2        3        |  1        2        3        |  1        2        3         ||
|                             |                             |                             |                              ||
|                             |                             |                             |                              ||
|-----------------------------|-----------------------------|-----------------------------|------------------------------||
|-----------------------------|-----------------------------|-----------------------------|------------------------------||
|-----------------------------|-----------------------------|-----------------------------|-----------------------------o||
|---__3__----__3__----__3__---|---__3__----__3__----__3__---|---__3__----__3__----__3__---|---__3__----__3__----__3__---o||
|--|--|--|--|--|--|--|--|--|--|--|--|--|--|--|--|--|--|--|--|--|--|--|--|--|--|--|--|--|--|--|--|--|--|--|--|--|--|--|---||
|--8--8--8--8--8--8--8--8--8--|--8--8--8--8--8--8--8--8--8--|--7--7--7--7--7--7--5--5--5--|--3--3--3--3--3--3--2--2--2---||
   1        2        3           1        2        3           1        2        3           1        2        3        

 ______________
|2.
|-----------------------------|-----------------------------|-----------------------------|-----------------------------|
|-----------------------------|-----------------------------|-----------------------------|-----------------------------|
|------------__3__------------|-----------------------------|-----------------------------|-----------------------------|
|-----------|--|--|-----------|-----------9--------10-------|--9tr10--------7tr9----------|--5tr7---------4tr5----------|
|--12-------10h12p10-9--------|--7--------------------------|-----------------------------|-----------------------------|
|-----------------------------|-----------------------------|-----------------------------|-----------------------------|
|  1        2        3        |  1        2        3        |  1        2        3        |  1        2        3        |
|                             |                             |                             |                             |
|                             |                             |                             |                             |
|-----------------------------|-----------------------------|-----------------------------|-----------------------------|
|-----------------------------|-----------------------------|-----------------------------|-----------------------------|
|-----------------------------|-----------------------------|---__3__----__3__----__3__---|---__3__----__3__----__3__---|
|---__3__----__3__----__3__---|---__3__----__3__----__3__---|--|--|--|--|--|--|--|--|--|--|--|--|--|--|--|--|--|--|--|--|
|--|--|--|--|--|--|--|--|--|--|--|--|--|--|--|--|--|--|--|--|--7--7--7--7--7--7--7--7--7--|--7--7--7--7--7--7--7--7--7--|
|--8--8--8--8--8--8--8--8--8--|--8--8--8--8--8--8--8--8--8--|-----------------------------|-----------------------------|
   1        2        3           1        2        3           1        2        3           1        2        3        


|-----------------------------|-----------------------------|-----------------------------|-----------------------------|
|-----------------------------|-----------------------------|-----------------------------|-----------------------------|
|-----------------------------|-----------------------------|-----------------------------|-----------------------------|
|-----------------------------|-----------9--------10-------|--9---10---7---9--------7----|-----------------------------|
|--10-------9--h10--p9--------|--7--------------------------|--------------------10-------|--9---10---7---9----6--------|
|-----------------------------|-----------------------------|-----------------------------|-----------------------------|
|  1        2        3        |  1        2        3        |  1        2        3        |  1        2        3        |
|                             |                             |                             |                             |
|                             |                             |                             |                             |
|-----------------------------|-----------------------------|-----------------------------|-----------------------------|
|-----------------------------|-----------------------------|-----------------------------|-----------------------------|
|-----------------------------|-----------------------------|-----------------------------|-----------------------------|
|---__3__----__3__----__3__---|---__3__----__3__----__3__---|--9--------7--------5--------|--9--------7--------5--------|
|--|--|--|--|--|--|--|--|--|--|--|--|--|--|--|--|--|--|--|--|--9--------7--------5--------|--9--------7--------5--------|
|--8--8--8--8--8--8--8--8--8--|--8--8--8--8--8--8--8--8--8--|--7--------5--------3--------|--7--------5--------3--------|
   1        2        3           1        2        3           1        2        3           1        2        3        


||------------------------------|-----------------------------|-----------------------------|-----------------------------|
||------------------------------|--12-------13-------12-------|--12-------------------------|-----------------------------|
||o--12-------11h12p11-9--------|-----------------------------|-----------------------------|--11-------------------------|
||o-----------|__|__|-----------|-----------------------------|-----------------------------|-----------------------------|
||---------------3--------------|-----------------------------|-----------------------------|-----------------------------|
||------------------------------|-----------------------------|-----------------------------|-----------------------------|
||   1        2        3        |  1        2        3        |  1        2        3        |  1        2        3        |
||                              |                             |                             |                             |
||                              |                             |                             |                             |
||------------------------------|--7--------------------------|-----------------------------|--6--------------------------|
||------------------------------|--8--------------------------|-----------------------------|--7--------------------------|
||o-----------------------------|--9---------__3__----__3__---|---__3__----__3__----__3__---|--8---------__3__----__3__---|
||o---__3__----__3__----__3__---|--9--------|--|--|--|--|--|--|--|--|--|--|--|--|--|--|--|--|--8--------|--|--|--|--|--|--|
||---|--|--|--|--|--|--|--|--|--|--7--------7--7--7--7--7--7--|--6--6--6--6--6--6--6--6--6--|--6--------6--6--6--6--6--6--|
||---0--0--0--0--0--0--0--0--0--|-----------------------------|-----------------------------|-----------------------------|
     1        2        3           1        2        3           1        2        3           1        2        3        


|-----------------------------|-----------------------------|-----------------------------|-----------------------------|
|-----------------------------|--12-------13-------12-------|--12-------------------------|-----------------------------|
|--12----------p11---9--------|-----------------------------|-----------------------------|--11-------------------------|
|-----------------------------|-----------------------------|-----------------------------|-----------------------------|
|-----------------------------|-----------------------------|-----------------------------|-----------------------------|
|-----------------------------|-----------------------------|-----------------------------|-----------------------------|
|  1        2        3        |  1        2        3        |  1        2        3        |  1        2        3        |
|                             |                             |                             |                             |
|                             |                             |                             |                             |
|-----------------------------|--7--------------------------|-----------------------------|--6--------------------------|
|-----------------------------|--8--------------------------|-----------------------------|--7--------------------------|
|-----------------------------|--9---------__3__----__3__---|---__3__----__3__----__3__---|--8---------__3__----__3__---|
|---__3__----__3__----__3__---|--9--------|--|--|--|--|--|--|--|--|--|--|--|--|--|--|--|--|--8--------|--|--|--|--|--|--|
|--|--|--|--|--|--|--|--|--|--|--7--------7--7--7--7--7--7--|--6--6--6--6--6--6--6--6--6--|--6--------6--6--6--6--6--6--|
|--0--0--0--0--0--0--0--0--0--|-----------------------------|-----------------------------|-----------------------------|
   1        2        3           1        2        3           1        2        3           1        2        3        

 ______________
|1.
|-----------------------------|-----------------------------|-----------------------------|-----------------------------|
|-----------------------------|-----------12-------13-------|--12tr13-------10tr12--------|--8tr10--------7tr8----------|
|--12-------11-h12--p11-------|--9--------------------------|-----------------------------|-----------------------------|
|-----------------------------|-----------------------------|-----------------------------|-----------------------------|
|-----------------------------|-----------------------------|-----------------------------|-----------------------------|
|-----------------------------|-----------------------------|-----------------------------|-----------------------------|
|  1        2        3        |  1        2        3        |  1        2        3        |  1        2        3        |
|                             |                             |                             |                             |
|                             |                             |                             |                             |
|-----------------------------|-----------------------------|-----------------------------|-----------------------------|
|-----------------------------|-----------------------------|-----------------------------|-----------------------------|
|-----------------------------|-----------------------------|---__3__----__3__----__3__---|---__3__----__3__----__3__---|
|---__3__----__3__----__3__---|---__3__----__3__----__3__---|--|--|--|--|--|--|--|--|--|--|--|--|--|--|--|--|--|--|--|--|
|--|--|--|--|--|--|--|--|--|--|--|--|--|--|--|--|--|--|--|--|--7--7--7--7--7--7--7--7--7--|--7--7--7--7--7--7--7--7--7--|
|--8--8--8--8--8--8--8--8--8--|--8--8--8--8--8--8--8--8--8--|-----------------------------|-----------------------------|
   1        2        3           1        2        3           1        2        3           1        2        3        


|-----------------------------|-----------------------------|-----------------------------|------------------------------||
|-----------------------------|-----------12-------13-------|--12--13---10--12-------10---|------------------------------||
|--12-------11-h12--p11--11---|--9--------------------------|--------------------12-------|--11--12---9---11---8--------o||
|-----------------------------|-----------------------------|-----------------------------|-----------------------------o||
|-----------------------------|-----------------------------|-----------------------------|------------------------------||
|-----------------------------|-----------------------------|-----------------------------|------------------------------||
|  1        2        3        |  1        2        3        |  1        2        3        |  1        2        3         ||
|                             |                             |                             |                              ||
|                             |                             |                             |                              ||
|-----------------------------|-----------------------------|-----------------------------|------------------------------||
|-----------------------------|--------------





Comments


Popular Dissection tabs & chords
Black Dragon Bass Tabs
At The Fathomless Depths Tabs
Elisabath Bathori Tabs
Elisabeth Bathori Tabs
Elizabeth Bathory 1 Tabs
Frozen 1 Tabs
Heaven's Damnation Tabs
No Dreams Breed In Breathless Sleep Tabs
Shadows Over A Lost Kingdom Tabs
Son Of The Mourning Tabs


Song lyrics



↑ Back to top | Tablatures and chords are parodies/interpretations of the original songs. You may use it for private study, scholarship, research or language learning purposes only
© 2014 AZChords.com Contact us | Privacy policy | DMCA | Add/correct tabs | Request tabs | Top 50 tabs