>
 >
Son Of The Mourning

Son Of The Mourning Guitar Tabs

Dissection - Son Of The Mourning chords, tabs, tablatures, lyrics

Guitar lessons | Add/correct | Request | Top 50 tabs Artists:  A B C D E F G H I J K L M N O P Q R S T U V W X Y Z 0-9

Son Of The Mourning Guitar Tabs – Dissection

CD, Sheet music, Poster

Do you like Son Of The Mourning? Share with your friends now
Tabs

Ver. 0.95 (02/04/17)

Symbols used in this tablature
        h : Hammer on            p : Pulling off
        g : Grissando            s : Slide
        c,hc,1hc : Bend          tr : Trill

Tuning : normal (6 : E)

*** time - 0:00
Part_A
  Repeat it 2 times.
#||---------------------------------------|---------------------------------------||#
#||---------------------------------------|---------------------------------------||#
#||o--------------------------------------|--------------------------------------o||#
#||o--------------------------------------|--------------------------------------o||#
#||---2--------5--------4--------3--------|--6--------5--------4--------3---------||#
#||---0--------3--------2--------1--------|--4--------3--------2--------1---------||#
      1        2        3        4           1        2        3        4    (End of Part_A)



*** time - 0:04
Part_B
  Repeat it 4 times.
#||---------------------------------------|---------------------------------------||#
#||---------------------------------------|---------------------------------------||#
#||o--------------------------------------|--------------------------------------o||#
#||o---__3__----__3__----__3__----__3__---|---__3__----__3__----__3__------------o||#
#||---|--|--|--|--|--|--|--|--|--|--|--|--|--|--|--|--|--|--|--|--|--|--3---------||#
#||---0--0--0--3--3--3--2--2--2--1--1--1--|--4--4--4--3--3--3--2--2--2--1---------||#
      1        2        3        4           1        2        3        4    (End of Part_B)



*** time - 0:11
Part_C
#|--------------------------------------|--------------------------------------|
#|--------------------------------------|--------------------------------------|
#|--------------------------------------|--------------------------------------|
#|--------------------------------------|--------------------2---4----5--------|
#|--2-----------------------------------|---------------------------------3----|
#|--0-----------------------------------|--------------------------------------|
    1        2        3        4           1        2        3        4


|--------------------------------------|--------------------------------------|
|--------------------------------------|--------------------------------------|
|--------------------------------------|--------------------------------------|
|-----------1--------------------------|--------------------2---4----5--------|
|-----------1--------------------------|----------------------------------2---|
|--------------------------------------|----------------------------------0---|
   1        2        3        4           1        2        3        4


|--------------------------------------|--------------------------------------|
|--------------------------------------|--------------------------------------|
|--------------------------------------|--------------------------------------|
|--------------------------------------|--------------------2---4----5--------|
|--------------------------------------|---------------------------------3----|
|--------------------------------------|--------------------------------------|
   1        2        3        4           1        2        3        4


|--------------------------------------|--------------------------------------|#
|--------------------------------------|--------------------------------------|#
|--------------------------------------|--------------------------------------|#
|-----------1--------------------------|--------------------2---4----5--------|#
|-----------1--------------------------|--------------------------------------|#
|--------------------------------------|--------------------------------------|#
   1        2        3        4           1        2        3        4    (End of Part_C)



*** time - 0:20
Part_B'
Play Part_B is 3 times
  and play following bars is once.
|--------------------------------------|-----------------------------|#
|--------------------------------------|-----------------------------|#
|--------------------------------------|-----------------------------|#
|---__3__----__3__----__3__----__3__---|-----------------------------|#
|--|--|--|--|--|--|--|--|--|--|--|--|--|--6------------6-------------|#
|--0--0--0--3--3--3--2--2--2--1--1--1--|--4------------4-------------|#
   1        2        3        4           1        2        3    (End of Part_B')



*** time - 0:28
Part_D
  Repeat it 3 times.
#|--------------------------------------|--------------------------------------|
#|--------------------------------------|--------------------------------------|
#|--------------------------------------|--------------------------------------|
#|--------------------2-----------------|--5-----------------1-----------------|
#|--2-----------------2-----------------|--3-----------------1-----------------|
#|--0-----------------------------------|--------------------------------------|
    1        2        3        4           1        2        3        4


|--------------------------------------|--------------------------------------|#
|--------------------------------------|--------------------------------------|#
|--------------------------------------|--------------------------------------|#
|--------------------2--h3-------------|--2-----------------1-----------------|#
|--2-----------------2--h3-------------|--2-----------------1-----------------|#
|--0-----------------------------------|--------------------------------------|#
   1        2        3        4           1        2        3        4    (End of Part_D)




*** time - 0:43
Part_E
  Repeat it 2 times.
#||---------------------------------------|--------------------------------------|
#||---------------------------------------|--------------------------------------|
#||o--------------------------------------|--------------o-/---------------------|
#||o--------------------------------------|---------------/-o--------------------|
#||---------------------7---10---6---9----|--------------------------------------|
#||---0-0-0-0--0-0-0-0--------------------|--------------------------------------|
      1        2        3        4           1        2        3        4


|--------------------------------------|---------------------------------------||#
|--------------------------------------|---------------------------------------||#
|--------------------------------------|--------------------------------------o||#
|--------------------------------------|--------------------------------------o||#
|--------------------7---8----10-------|------------------------7----8---10----||#
|--8-8-8-8--8-8-8-8--------------------|--8-8-8-8--8-8-8-8--7------------------||#
   1        2        3        4           1        2        3        4    (End of Part_E)



*** time - 0:52
Part_F
#|--------------------------------------|--------------------------------------|
#|--------------------------------------|--------------------------------------|
#|------------------------------__3__---|--------------------------------------|
#|-----------------------------|--|--|--|--------------------------------------|
#|--------------------7--------6-h7-p6--|--------------------------------------|
#|--0-0-0-0--0-0-0-0--------------------|--8-8-8-8--8-8-8-8--8-8-8-8--8-8-8-8--|
    1        2        3        4           1        2        3        4


|--------------------------------------|--------------------------------------|
|--------------------------------------|--------------------------------------|
|--------------------------------------|--------------------------------------|
|---------------------9-9-9-9-9-9-9-9--|--10101010-9-9-9-9--------------------|
|--7-7-7-7--7-7-7-7--------------------|--------------------10101010-9--------|
|--------------------------------------|--------------------------------------|
|  1        2        3        4        |  1        2        3        4        |
|                                      |                                      |
|                                      |                                      |
|--------------------------------------|--------------------------------------|
|--------------------------------------|--------------------------------------|
|------------------------------__3__---|--------------------------------------|
|-----------------------------|--|--|--|--------------------------------------|
|--------------------7--------6-h7-p6--|-----------------------------6--------|
|--0-0-0-0--0-0-0-0--------------------|--8-8-8-8--8-8-8-8--8-----------------|
   1        2        3        4           1        2        3        4


|--------------------------------------|--------------------------------------|
|--------------------------------------|--------------------------------------|
|------------------------------__3__---|--------------------------------------|
|-----------------------------|--|--|--|--------------------------------------|
|--------------------7--------6-h7-p6--|--------------------------------------|
|--0-0-0-0--0-0-0-0--------------------|--8-8-8-8--8-8-8-8--8-8-8-8--8-8-8-8--|
   1        2        3        4           1        2        3        4


|--------------------------------------|--------------------------------------|#
|--------------------------------------|--------------------------------------|#
|--------------------------------------|--9-9-9-9-----------------------------|#
|---------------------9-9-9-9-9-9-9-9--|-----------10101010-9-9-9-9-----------|#
|--7-7-7-7--7-7-7-7--------------------|-----------------------------10-------|#
|--------------------------------------|--------------------------------------|#
|  1        2        3        4        |  1        2        3        4        |
|                                      |                                      |
|                                      |                                      |
|--------------------------------------|--------------------------------------|#
|--------------------------------------|--------------------------------------|#
|------------------------------__3__---|--------------------------------------|#
|-----------------------------|--|--|--|--------------------------------------|#
|--------------------7--------6-h7-p6--|-----------------------------6--------|#
|--0-0-0-0--0-0-0-0--------------------|--8-8-8-8--8-8-8-8--8-----------------|#
   1        2        3        4           1        2        3        4    (End of Part_F)



*** time - 1:01
Play Part_D
  Repeat it 2 times.



*** time - 1:10
Play Part_E
  Repeat it 2 times.




*** time - 1:19
Part_G
  Repeat it 2 times.
#||---------------------------------------------------------------------------|
#||---------------------------------------------------------------------------|
#||o--------------------------------------------------------------------------|
#||o---------6-----------------6-----------------6-----------------6----------|
#||---|==|==|==|==|==|--|==|==|==|==|==|--|==|==|==|==|==|--|==|==|==|==|==|--|
#||---0--0--0--0--0--0--1--1--1--1--1--1--0--0--0--0--0--0--3--3--3--3--1--1--|
      1                 2                 3                 4


|--------------------------------------------------------------------------|
|---------------------------------------_____3_____----------__3_____------|
|--------------------------------------|-----|-----|-----|==|--|-----|-----|
|---------6-----------------6----------------------3-----2-h3-p2-----------|
|--|==|==|==|==|==|--|==|==|==|==|==|--3-----4-----------------------------|
|--0--0--0--0--0--0--1--1--1--1--1--1--------------------------------1-----|
   1                 2                 3                 4          


|-----------------------------------------------------------------------------|
|-----------------------------------------------------------------------------|
|-----------------------------------------------------------------------------|
|---------6-----------------6-----------------6-----------------6-------------|
|--|==|==|==|==|==|--|==|==|==|==|==|--|==|==|==|==|==|--|==|==|==|==|==|-----|
|--0--0--0--0--0--0--1--1--1--1--1--1--0--0--0--0--0--0--3--3--3--3--1--1-----|
   1                 2                 3                 4


|------------------------------------------------------------------------------||#
|------------------------------------------------------------------------------||#
|---------------------------------------_____3_____---------------------------o||#
|---------6-----------------6----------|-----|-----|------------6-------------o||#
|--|==|==|==|==|==|--|==|==|==|==|==|--3-----2-----------|==|==|==|==|==|------||#
|--0--0--0--0--0--0--1--1--1--1--1--1--------------3-----4--4--4--4--4--4------||#
   1                 2                 3                 4                (End of Part_G)



*** time - 1:34
Part_H
  Repeat it 4 times.
#||---------------------------------------------------------------------------|
#||---------------------------------------------------------------------------|
#||o---------6-----------------6----------------------------------------------|
#||o--|==|==|==|==|==|--|==|==|==|==|==|---------6-----------------6----------|
#||---2--2--2--2--2--2--1--1--1--1--1--1--|==|==|==|==|==|--|==|==|==|==|==|--|
#||---------------------------------------2--2--2--2--2--2--1--1--1--1--1--1--|
      1                 2                 3                 4


|---------------------------------------------------------------------------||#
|---------------------------------------------------------------------------||#
|---------6-----------------6----------------------------------------------o||#
|--|==|==|==|==|==|--|==|==|==|==|==|---------6-----------------6----------o||#
|--4--4--4--4--4--4--3--3--3--3--3--3--|==|==|==|==|==|--|==|==|==|==|==|---||#
|--------------------------------------4--4--4--4--4--4--3--3--3--3--3--3---||#
   1                 2                 3                 4              (End of Part_H)



*** time - 1:49
Part_I
  Repeat it 5 times.
#||---------------------------------------|---------------------------------------||#
#||---------------------------------------|---------------------------------------||#
#||o--------------------------------------|-----------------o-/------------------o||#
#||o--------------------------------------|------------------/-o-----------------o||#
#||---2---1-------------4---3-------------|---------------------------------------||#
#||------------2---1-------------4---3----|---------------------------------------||#
      1        2        3        4           1        2        3        4    (End of Part_I)



*** time - 2:01
Part_J
  Repeat it 3 times.
#||---------------------------------------|--------------------------------------|
#||---------------------------------------|--------------------------------------|
#||o--5-----------------------------------|--9-----------------------------------|
#||o--5-----------------------------------|--9-----------------------------------|
#||---3-----------------------------------|--7-----------------------------------|
#||---------------------------------------|--------------------------------------|
      1        2        3        4           1        2        3        4


|--------------------------------------|--------------------------------------|
|--------------------------------------|--------------------------------------|
|--5--------------------------10-------|--9-----------------------------------|
|--5--------------------------10-------|--9-----------------------------------|
|--3--------------------------8--------|--7-----------------------------------|
|--------------------------------------|--------------------------------------|
   1        2        3        4           1        2        3        4


|--------------------------------------|--------------------------------------|
|--------------------------------------|--------------------------------------|
|--5-----------------------------------|--9-----------------------------------|
|--5-----------------------------------|--9-----------------------------------|
|--3-----------------------------------|--7-----------------------------------|
|--------------------------------------|--------------------------------------|
   1        2        3        4           1        2        3        4


|--------------------------------------|---------------------------------------||#
|--------------------------------------|---------------------------------------||#
|--5-----------------8--------7--s8----|--9-----------------------------------o||#
|--5-----------------8--------7--s8----|--9-----------------------------------o||#
|--3-----------------6--------5--s6----|--7------------------------------------||#
|--------------------------------------|---------------------------------------||#
   1        2        3        4           1        2        3        4    (End of Part_J)




*** time - 2:26
Play Part_B
  Repeat it 4 times.



*** time - 2:34
Part_K
  Repeat it 2 times.
#||---------------------------------------|-------------------|------------------|
#||---------------------------------------|-------------------|------------------|
#||o--------------------------------------|--------o-/--------|-------o-/--------|
#||o--------------------------------------|---------/-o-------|--------/-o-------|
#||---2---2--------2----5--------4--s5----|-------------------|------------------|
#||---0---0--------0----3--------2--s3----|-------------------|------------------|
      1        2        3        4

 _________________                        _________________
|1.                                      |2.
|---------------------------------------||--------------------------------------|#
|---------------------------------------||--------------------------------------|#
|--------------------------------------o||--------------------------------------|#
|--------------------------------------o||--------------------------------------|#
|--3-3-3-3--3-3-3-3--2-2-2-2--2-2-2-2---||--2-2-2-2--2-2-2-2--3-3-3-3--3-3-3-3--|#
|---------------------------------------||--------------------------------------|#
   1        2        3        4             1        2        3        4    (End of Part_K)


*** time - 2:42
Play Part_D
  Repeat it 4 times.



*** time - 3:00
Part_L
#|--------------------|
#|--------------------|
#|--------------------|
#|--------------------|
#|--2-----------------|
#|--0--------gxg------|
    1        2        

  Repeat it 2 times.
||---------------------------------------|---------------------------------------||
||---------------------------------------|---------------------------------------||
||o--------------------------------------|--------------------------------------o||
||o--------------------------------------|--------------------------------------o||
||------------------------------3-3-2-2--|-----------3-3-4-4--3-3----------------||
||---0-0-3-3--4-4-0-0--3-3-4-4-----------|--1-1-4-4---------------3-3--4-4-1-1---||
     1        2        3        4           1        2        3        4


|-----------|#
|-----------|#
|-----------|#
|-----------|#
|--2--------|#
|--0--------|#
   1    (End of Part_L)


==== END OF TAB ====





Comments


Popular Dissection tabs & chords
Black Dragon Bass Tabs
At The Fathomless Depths Tabs
Into Infinite Obscurity Tabs
Maha Kali (Intro) Tabs
Night's Blood Tabs
No Dreams Breed In Breathless Sleep 1 Tabs
Soulreaper Tabs
Unhallowed Tabs
Where Dead Angels Lie 1 Tabs
Where Dead Angels Lie Acousitc Tabs


Song lyrics



↑ Back to top | Tablatures and chords are parodies/interpretations of the original songs. You may use it for private study, scholarship, research or language learning purposes only
© 2014 AZChords.com Contact us | Privacy policy | DMCA | Add/correct tabs | Request tabs | Top 50 tabs