>
 >
Retribution

Retribution Guitar Tabs

Dissection - Retribution chords, tabs, tablatures, lyrics

Guitar lessons | Add/correct | Request | Top 50 tabs Artists:  A B C D E F G H I J K L M N O P Q R S T U V W X Y Z 0-9

Retribution Guitar Tabs – Dissection

CD, Sheet music, Poster

Do you like Retribution? Share with your friends now
Tabs
                             DISSECTION - RETRIBUTION
                     From the Album - STORM OF THE LIGHT'S BANE
                            Copyright 1998 Nuclear Blast

                             Version 1.0 - 2002/05/09

Don't hesitate to send comments, corrections, or wathever else...

Standard E tuning

Riff A.1
e-|------------------------------------------------------------------|
B-|------------------------------------------------------------------|
G-|------------------------------------------------------------------|
D-|------7-----3-----7---9-10-----7-----3-----7-7-6-6----------------|
A-|----7-----3-----7---7--------7-----3-----7---7-6-6----------------|
E-|--5-----1-----5------------5-----1-----5-----5-4-4----------------|

Riff A.2
e-|------------------------------------------------------------------|
B-|------------------------------------------------------------------|
G-|------------------------------------------------------------------|
D-|------7-----3-----7-10-9-10-----7-----3-----7-7-6-6---------------|
A-|----7-----3-----7-------------7-----3-----7---7-6-6---------------|
E-|--5-----1-----5-------------5-----1-----5-----5-4-4---------------|

Riff B
e-|------------------------------------------------------------------|
B-|------------------------------------------------------------------|
G-|------------------------------------------------------------------|
D-|------7-------------------9-10-----7------------------------------|
A-|----7---88888-5-77777---7--------7---88888-5-77777-3-6-6-6--------|
E-|--5-------------------8--------5---------------------4-4-4--------|

e-|------------------------------------------------------------------|
B-|------------------------------------------------------------------|
G-|------------------------------------------------------------------|
D-|------7-----------------10-9-10-----7-----------------------------|
A-|----7---88888-5-77777-------------7---88888-5-77777-3-6-6-6-------|
E-|--5-------------------8---------5---------------------4-4-4-------|

Repeat Riff A.1 (1 time)

Riff C.1
e-|------------------------------------------------------------------|
B-|------------------------------------------------------------------|
G-|--5---5---5-5---5---5-4---4---4-4---4---4-------------------------|
D-|--7---7---7-7---7---7-7---7---7-5---5---5-------------------------|
A-|-----0---0-----0---0-----0---0-----2---2--------------------------|
E-|------------------------------------------------------------------|

e-|------------------------------------------------------------------|
B-|------------------------------------------------------------------|
G-|--5---5---5-5---5---5-4---4---4-----------------------------------|
D-|--7---7---7-7---7---7-7---7---7-7---3-----------------------------|
A-|-----0---0-----0---0-----0---0--5---1---0-------------------------|
E-|------------------------------------------------------------------|

Riff C.2   this part is a little bit faster than C.1 (but i dont know how...)
e-|------------------------------------------------------------------|
B-|------------------------------------------------------------------|
G-|--5---5---5-4---4---4-5---5---5-----------------------------------|
D-|--7---7---7-7---7---7-7---7---7-----------------------------------|
A-|-----0---0-----0---0-----0---0--3---6--6--------------------------|
E-|--------------------------------1---4--4--------------------------|

e-|------------------------------------------------------------------|
B-|------------------------------------------------------------------|
G-|--5---5---5-4---4---4-5---5---5-----------------------------------|
D-|--7---7---7-7---7---7-7---7---7-----------------------------------|
A-|-----0---0-----0---0-----0---0--11--7--6--------------------------|
E-|--------------------------------9---5--4--------------------------|

Riff D
e-|----------------------------------------------------------------------|
B-|----------------------------------------------------------------------|
G-|----------------------------------------------------------------------|
D-|----------------------------------------------------------------------|
A-|--7---7-7---7-7-7--10--10-10---10-10-10--------------------10-11-10~--|
E-|--5---5-5---5-5-5--9---9--9----9--9--9---5---5-5---5-5-5---9--10-9~---|

e-|----------------------------------------------------------------------|
B-|----------------------------------------------------------------------|
G-|----------------------------------------------------------------------|
D-|----------------------------------------------------------------------|
A-|--7---7-7---7-7-7--10--10-10---10-10-10--------------------10---------|
E-|--5---5-5---5-5-5--9---9--9----9--9--9---5---5-5---5-5-5---9----------|

Repeat Riff C (2 times)

Riff E
e-|------------------------------------------------------------------|
B-|------------------------------------------------------------------|
G-|------------------------------------------------------------------|
D-|------7-----------7---9-10-----7-----------7-7-6-6----------------|
A-|----7---8888----7---7--------7---8888----7---7-6-6----------------|
E-|--5-----------5------------5-----------5-----5-4-4----------------|

Repeat Riff B (1 time)
Repeat Riff C (2 times)
Repeat Riff D (2 times)
Repeat Riff B (1 time)

Riff F
e-|------------------------------------------------------------------|
B-|------------------------------------------------------------------|
G-|------------------------------------------------------------------|
D-|------------------------------------------------------------------|
A-|--7---7--7--7---10---10-10-10---9---9--9--9----3---3--3--3--3-----|
E-|--5---5--5--5---8----8--8--8----7---7--7--7----1---1--1--1--1-----|

Repeat Riff F (1 time)

Riff G
e-|------------------------------------------------------------------|
B-|------------------------------------------------------------------|
G-|------------------------------------------------------------------|
D-|---2---2-2-2---5---5-5-5---4---4-4-4------------------------------|
A-|---0---0-0-0---3---3-3-3---2---2-2-2---------------3-2-3----------|
E-|---------------------------------------0---0-0-0------------------|

e-|------------------------------------------------------------------|
B-|------------------------------------------------------------------|
G-|------------------------------------------------------------------|
D-|---2---2-2-2---5---5-5-5---4---4-4-4------------------------------|
A-|---0---0-0-0---3---3-3-3---2---2-2-2---2--2--2--------------------|
E-|---------------------------------------0--0--0--------------------|

Repeat Riff G (1 time)

Riff H
e-|----------------------------------------------------------------------|
B-|----------------------------------------------------------------------|
G-|---------------------------------------------------9h10p9-------------|
D-|----------7-6-7----------10-9-10----------10-9-10---------10-9-10-12--|
A-|--0--000---------0--000-----------7--777------------------------------|
E-|----------------------------------------------------------------------|

Repeat Riff G (3 time)    third and fourth time are in harmony with the 
                          second guitar that i cannot tab...

an idea for the solo...

~ tremolo
^ pinch harmonic
h hammer on
p pull off
/ slide up 

e-|-12h13p12----12---------------------------------------10^-------------|
B-|----------15----13-15-12-13----12---------------10--------------------|
G-|----------------------------14----12-14-10~--10----10-----------------|
D-|----------------------------------------------------------------------|
A-|----------------------------------------------------------------------|
E-|----------------------------------------------------------------------|

e-|----------------------------------------------------------------------------|
B-|----------------------------------------------------------------------------|
G-|-10-10-9h10p9---------------------------12-10-9h10p9------------------------|
D-|--------------12-10-9-10---10-9----9-10--------------12-10-9----------------|
A-|--------------------------------12---------------------------12-10-8---7-8--|
E-|----------------------------------------------------------------------------|

e-|-----------------------------13-12h13p12------------------------------|
B-|---------12-13-(12)h13-12-13-------------15-13-12-13~-----------------|
G-|--/14-14--------------------------------------------------------------|
D-|----------------------------------------------------------------------|
A-|----------------------------------------------------------------------|
E-|----------------------------------------------------------------------|

Riff H
e-|----------------------------------------------------------------------|
B-|----------------------------------------------------------------------|
G-|----------------------------------------------------------------------|
D-|----------------------------------------------------------------------|
A-|-0-0-0-3-0-3-7-0-0-7-0-7-0-0-0-3-0-3-7-0-0-7-0-7----------------------|
E-|----------------------------------------------------------------------|

e-|----------------------------------------------------------------------|
B-|----------------------------------------------------------------------|
G-|----------------------------------------------------------------------|
D-|----------------------------------------------------------------------|
A-|---------------------------------------------3-2----------------------|
E-|-0-0-0-3-0-3-7-0-0-7-0-7-0-0-0-3-0-7-1-1-1-1--------------------------|

Repeat Riff H (1 time)

e-|----------------------------------------------------------------------|
B-|----------------------------------------------------------------------|
G-|----------------------------------------------------------------------|
D-|----------------------------------------------------------------------|
A-|-0-0-0-3-0-3-7-0-0-7-0-7-0-0-0-3-0-3-7-0-0-8-7-7~---------------------|
E-|----------------------------------------------------------------------|

e-|----------------------------------------------------------------------|
B-|----------------------------------------------------------------------|
G-|----------------------------------------------------------------------|
D-|----------------------------------------------------------------------|
A-|--2---0-2-7--2---2-2-2-2h3p2------------------------------------------|
E-|-----------------------------3----------------------------------------|

Repeat Riff H (1 time)
Repeat Riff G (2 time)

Riff I
e-|----------------------------------------------------------------------|
B-|----------------------------------------------------------------------|
G-|--5---------------4---------------5---------------4-------------------|
D-|--7---------------7---------------7---------------7-------7--3--------|
A-|----------------------------------------------------------5--1--0-----|
E-|----------------------------------------------------------------------|

Repeat Riff C.2 (1 time)
Repeat Riff E (1 time)
Repeat Riff B (1 time)





Comments


Popular Dissection tabs & chords
At The Fathomless Depths 1 Tabs
Elizabeth Bathory 1 Tabs
Heaven's Damnation Tabs
No Dreams Breed In Breathless Sleep Tabs
Shadows Over A Lost Kingdom Tabs
Son Of The Mourning Tabs
Thorns Of Crimson Death Tabs
Where Dead Angels Lie Tabs
Where Dead Angels Lie 1 Tabs
Where Dead Angels Lie 2 Tabs


Song lyrics



↑ Back to top | Tablatures and chords are parodies/interpretations of the original songs. You may use it for private study, scholarship, research or language learning purposes only
© 2014 AZChords.com Contact us | Privacy policy | DMCA | Add/correct tabs | Request tabs | Top 50 tabs