>
 >
In The Cold Winds Of Nowhere

In The Cold Winds Of Nowhere Guitar Tabs

Dissection - In The Cold Winds Of Nowhere chords, tabs, tablatures, lyrics

Guitar lessons | Add/correct | Request | Top 50 tabs Artists:  A B C D E F G H I J K L M N O P Q R S T U V W X Y Z 0-9

In The Cold Winds Of Nowhere Guitar Tabs – Dissection

CD, Sheet music, Poster

Do you like In The Cold Winds Of Nowhere? Share with your friends now
Tabs


Ver. 1.0 (02/04/20)

Symbols used in this tablature
        h : Hammer on            p : Pulling off
        g : Grissando            s : Slide
        c,hc,1hc : Bend          tr : Trill
        r : with right hand

Tuning : normal (6 : E)


*** time - 0:00
Part_A
#|--------------------------------------|--------------------------------------|
#|--------------------------------------|--------------------------------------|
#|--------------------------------------|--------------------------------------|
#|--109------8---9--------109------8----|--9--------109------8---9--------109--|
#|------109----9---9--107------109---9--|----9-107------109----9---9--107------|
#|--------------------------------------|--------------------------------------|
 |  1        2        3        4        |  1        2        3        4        |
 |                                      |                                      |
 |                                      |                                      |
#|--------------------------------------|--------------------------------------|
#|--------------------------------------|--------------------------------------|
#|--------------------------------------|--4-----------------------------------|
#|--2-----------------------------------|--4-----------------------------------|
#|--2-----------------------------------|--2-----------------------------------|
#|--0-----------------------------------|--------------------------------------|
    1        2        3        4           1        2        3        4

|--------------------------------------|--------------------------------------|
|--------------------------------------|--------------------------------------|
|--------------------------------------|--------------------------------------|
|------8----9--------109------8---9----|------109------8----9--------109------|
|--109---9----9-107------109----9---9--|--107------109---9----9-107------109--|
|--------------------------------------|--------------------------------------|
|  1        2        3        4        |  1        2        3        4        |
|                                      |                                      |
|                                      |                                      |
|--------------------------------------|---------------------_____3_____------|
|--------------------------------------|--------------------|-----|-----|-----|
|--5-----------------------------------|--2-----------------4-----5-----7-----|
|--5-----------------------------------|--2-----------------4-----5-----7-----|
|--3-----------------------------------|--0-----------------2-----3-----5-----|
|--------------------------------------|--------------------------------------|
   1        2        3        4           1        2        3        4

#|--------------------------------------|--------------------------------------|
#|--------------------------------------|--------------------------------------|
#|--------------------------------------|--------------------------------------|
#|--8---9--------109------8----9--------|--109------8---9--------109------8----|
#|----9---9--107------109---9----9-107--|------109----9---9--107------109---9--|
#|--------------------------------------|--------------------------------------|
 |  1        2        3        4        |  1        2        3        4        |
 |                                      |                                      |
 |                                      |                                      |
#|--------------------------------------|--------------------------------------|
#|--------------------------------------|--------------------------------------|
#|--------------------------------------|--4-----------------------------------|
#|--2-----------------------------------|--4-----------------------------------|
#|--2-----------------------------------|--2-----------------------------------|
#|--0-----------------------------------|--------------------------------------|
    1        2        3        4           1        2        3        4

|--------------------------------------|--------------------------------------|
|--------------------------------------|--------------------------------------|
|--------------------------------------|--------------------------------------|
|--9--------109------8---9--------109--|------8----9--------------------------|
|----9-107------109----9---9--107------|--109---9----9-107--7-----------------|
|--------------------------------------|--------------------------------------|
|  1        2        3        4        |  1        2        3        4        |
|                                      |                                      |
|                                      |                                      |
|--------------------------------------|---------------------_____3_____------|
|--------------------------------------|--------------------|-----|-----|-----|
|--5-----------------------------------|--2-----------------4-----5-----7-----|
|--5-----------------------------------|--2-----------------4-----5-----7-----|
|--3-----------------------------------|--0-----------------2-----3-----5-----|
|--------------------------------------|--------------------------------------|
   1        2        3        4           1        2        3        4   (End of Part_A)


*** time - 0:26
Part_B
  Repeat it 6 times.
#||---------------------------------------|---------------------------------------||#
#||---------------------------------------|---------------------------------------||#
#||o--------------------------------------|--------------------------------------o||#
#||o-----------------------------7p6------|--------------------------7------10p9-o||#
#||---2--------7--------8~----------7-----|--2--------7--------8-8-8----8p7-------||#
#||---0---0-0------0-0--------------------|--0---0-0------0-0---------------------||#
      1        2        3        4           1        2        3        4   (End of Part_B)


*** time - 0:50
Part_C
  Repeat it 2 times.
#||---------------------------------------|--------------------------------------|
#||---------------------------------------|--------------------------------------|
#||o--------------------------------------|--------------------------------------|
#||o--------------------------------------|--------------------------------------|
#||---2--------------------------3--------|--2--------------------------5--------|
#||---0---0-0--3c3d3--------1-------------|--0---0-0--3c3d3--------1-------------|
      1        2        3        4           1        2        3        4

|--------------------------------------|---------------------------------------||#
|--------------------------------------|---------------------------------------||#
|--------------------------------------|--4~-------4h5p4-2------2----5--------o||#
|--------------------------------------|--------------------------------------o||#
|--2--------------------------3--------|---------------------------------------||#
|--0---0-0--3c3d3--------1-------------|---------------------------------------||#
   1        2        3        4        |  1        2        3        4         ||
                                       |                                       ||
                                       |                                       ||
                                       |---------------------------------------||#
                                       |---------------------------------------||#
                                       |--------------------------------------o||#
                                       |--------------------------------------o||#
                                       |--7~-------7h8p7-5------5----8---------||#
                                       |---------------------------------------||#
                                          1        2        3        4    (End of Part_C)


*** time - 1:07
Play Part_B
  Repeat it 2 times.


*** time - 1:31
Plat Part_C
  Repeat 2 times.


*** time - 1:47
Part_D-Rythm
#||-----------------|----------------|----------------|----------------|
#||-----------------|----------------|----------------|----------------|
#||o----------------|----------------|----------------|----------------|
#||o----------------|----------------|----------------|----------------|
#||---7~-7~-7~-7~---|--7~-7~-7~-7~---|--3~-3~-3~-3~---|----------------|
#||-----------------|----------------|----------------|--4~-4~-4~-4~---|
      1  2  3  4       1  2  3  4       1  2  3  4       1  2  3  4


|----------------|----------------|----------------|-----------------||#
|----------------|----------------|----------------|-----------------||#
|----------------|----------------|----------------|----------------o||#
|----------------|-----9-----10---|----------------|----------------o||#
|--7~-7~-7~-7~---|--7-----7-------|--3~-3~-3~-3~---|-----------------||#
|----------------|----------------|----------------|--4~-4~-4~-4~----||#
   1  2  3  4       1  2  3  4       1  2  3  4       1  2  3  4    (End of Part_D-Rythm)


Part_D-Lead
#|-----------------------------12h14h15-|--14p12----15p14p12-------------------|
#|--15c------15c------15c---------------|--------15----------15c---------------|
#|--------------------------------------|--------------------------------------|
#|--------------------------------------|--------------------------------------|
#|--------------------------------------|--------------------------------------|
#|--------------------------------------|--------------------------------------|
    1        2        3        4           1        2        3        4

|--19-19-19-15-15-15-17-17-17-14-14-14-|--15-15-15-12-12-12-14-14-14-10-10-10-|
|--------------------------------------|--------------------------------------|
|--------------------------------------|--------------------------------------|
|--------------------------------------|--------------------------------------|
|--------------------------------------|--------------------------------------|
|--------------------------------------|--------------------------------------|
   1        2        3        4           1        2        3        4


|--17p15p12-17p15p12-17p15p12-17p15p12-|--17p15p12-17p15p12-17p15p12-17p15p12-|
|--r--------r--------r--------r--------|--r--------r--------r--------r--------|
|--------------------------------------|--------------------------------------|
|--------------------------------------|--------------------------------------|
|--------------------------------------|--------------------------------------|
|--------------------------------------|--------------------------------------|
   1        2        3        4           1        2        3        4

|--------------------------------------|--------------------------------------|#
|--13-------1213-----------------------|--10-------9-h10p9--------------------|#
|------------tr------------------------|--------------------10-------9--------|#
|--------------------------------------|--------------------------------------|#
|--------------------------------------|--------------------------------------|#
|--------------------------------------|--------------------------------------|#
   1        2        3        4           1        2        3        4    (End of Part_D-Lead)


*** time - 2:03
Part_D'
  Repeat it 2 times.
// It is piled up to Part_D, and it plays.
#||-----------------|----------------|----------------|-----------------||#
#||-----------------|----------------|----------------|-----------------||#
#||o----------------|----------------|----------------|--9~------------o||#
#||o-----9~-10~7~---|--9~----7~-9~---|-----9~-10~7~---|-----10~9~------o||#
#||---7~------------|-----10~--------|----------------|-----------10~---||#
#||-----------------|----------------|--8~------------|-----------------||#
      1  2  3  4       1  2  3  4       1  2  3  4       1  2  3  4    (End of Part_D')


*** time - 2:11
Part_E
  Repeat it 2 times.
#||---------------------------------------|--------------------------------------|
#||---12p5-h8--12p5-h8--12p5-h8--12p5-h8--|--11p4-h7--11p4-h7--11p4-h7--11p4-h7--|
#||o--r--------r--------r--------r--------|--r--------r--------r--------r--------|
#||o--------------------------------------|--------------------------------------|
#||---------------------------------------|--------------------------------------|
#||---------------------------------------|--------------------------------------|
 ||   1        2        3        4        |  1        2        3        4        |
 ||                                       |                                      |
 ||                                       |                                      |
#||---------------------------------------|--------------------------------------|
#||---------------------------------------|--------------------------------------|
#||o--------------------------------------|--------------------------------------|
#||o--------------------------------------|--------------------------------------|
#||---7~-------7~-------------------------|--6~-------6~-------6~-------6~-------|
#||---------------------8~-------8~-------|--------------------------------------|
      1        2        3        4           1        2        3        4


|--------------------------------------|---------------------------------------||#
|--12p5-h8--12p5-h8--12p5-h8--12p5-h8--|--11p4-h7--11p4-h7--11p4-h7--11p4-h7---||#
|--r--------r--------r--------r--------|--r--------r--------r--------r--------o||#
|--------------------------------------|--------------------------------------o||#
|--------------------------------------|---------------------------------------||#
|--------------------------------------|---------------------------------------||#
|  1        2        3        4        |  1        2        3        4         || 
|                                      |                                       || 
|                                      |                                       || 
|--------------------------------------|---------------------------------------||#
|--------------------------------------|---------------------------------------||#
|--------------------------------------|--------------------------------------o||#
|--------------------------------------|--------------------------------------o||#
|--7~-------7~-------7~----------------|--6~-------6~-------6~-------6~--------||#
|-----------------------------8~-------|---------------------------------------||#
   1        2        3        4           1        2        3        4  (End of Part_E)


*** time - 2:19
Play Part_D'
  Repeat it 2 times.


*** time - 2:27
Part_F
  Repeat it 2 times.
#||------------------|-----------------|-----------------|------------------||#
#||------------------|-----------------|-----------------|------------------||#
#||o-----------------|-----------------|-----------------|-----------------o||#
#||o--2--------------|-----------------|-----------------|-----------------o||#
#||---2--------------|-----------------|-----------------|------------------||#
#||---0--------------|-----------------|-----------------|------------------||#
 ||   1    2    3    |  1    2    3    |  1    2    3    |  1    2    3     || 
 ||                  |                 |                 |                  || 
 ||                  |                 |                 |                  || 
#||------------------|-----------------|-----------------|------------------||#
#||------------------|-----------------|-----------------|------------------||#
#||o-----------------|-----------------|-----------------|-----------------o||#
#||o-----------------|-----------------|-----------------|------------10-9-o||#
#||--------9h10-7^^^^^^^7----9h10-9----|-------9h10-7----|--7----9h10-------||#
#||---0--------------|-----------------|--0--------------|------------------||#
      1    2    3       1    2    3       1    2    3       1    2    3  (End of Part_F)


*** time - 2:36
Part_G
  Repeat it 8 times.
#||------------------|-----------------|-----------------|------------------||#
#||------------------|-----------------|-----------------|------------------||#
#||o-----------------|--5--------------|-----------------|--5--------------o||#
#||o--2--------------|--5--------------|--2--------------|--5--------------o||#
#||---2--------------|--3--------------|--2--------------|--3---------------||#
#||---0--------------|-----------------|--0--------------|------------------||#
 ||   1    2    3    |  1    2    3    |  1    2    3    |  1    2    3     || 
 ||                  |                 |                 |                  || 
 ||                  |                 |                 |                  || 
#||------------------|-----------------|-----------------|------------------||#
#||------------------|-----------------|-----------------|------------------||#
#||o-----------------|-----------------|-----------------|-----------------o||#
#||o-----------------|-----------------|-----------------|------------10-9-o||#
#||--------9h10-7^^^^^^^7----9h10-9----|-------9h10-7----|--7----9h10-------||#
#||---0--------------|-----------------|--0--------------|------------------||#
      1    2    3       1    2    3       1    2    3       1    2    3  (End of Part_G)


*** time - 3:10
Part_H-Rythm
  Repeat it 5 times.
#||-----------------------|----------------------|
#||-----------------------|----------------------|
#||o--9---------7---------|--5-4----5------------|
#||o--9---------7---------|--5-4----5------------|
#||---7---------5---------|--3-2----3------------|
#||-----------------------|----------------------|
      1    2    3    4       1    2    3    4         

|----------------------|-----------------------||#
|----------------------|-----------------------||#
|--9---------7---------|--5-4----5------------o||#
|--9---------7---------|--5-4----5------------o||#
|--7---------5---------|--3-2----3-------------||#
|----------------------|-----------------------||#
   1    2    3    4       1    2    3    4  (End of Part_H-Rythm)


Part_H-Lead
#|--------------------------------------|--------------------------------------|
#|--------------------------------------|--------------------------------------|
#|--------------------------------------|--------------------------------------|
#|--------------------------------------|--------------------------------------|
#|--7-----------------------------------|---------------10p9-10p9--------------|
#|--------------------------------------|--------------------------------------|
    1        2        3        4           1        2        3        4

|--------------------------------------|---------------------------------15---|
|--------------------------------------|-----------------------------12-------|
|--------------------------------------|--------------------------------------|
|--------------------------------------|--------------------------------------|
|--10--9--------7----------------------|--------------------------------------|
|--------------------------------------|--------------------------------------|
   1        2        3        4           1        2        3        4

|--------------------------------------|--------------------------------------|
|--15c---------------------------------|---------------12p1112p11-------------|
|--------------------------------------|--------------------------------------|
|--------------------------------------|--------------------------------------|
|--------------------------------------|--------------------------------------|
|--------------------------------------|--------------------------------------|
   1        2        3        4           1        2        3        4

|--------------------------------------|--------------------------------------|----|
|--------------------------------------|--------------------------------------|-12-|
|--12-p11-------9-------------11-------|--12-p11-------14-------12---11-------|----|
|--------------------------------------|--------------------------------------|----|
|--------------------------------------|--------------------------------------|----|
|--------------------------------------|--------------------------------------|----|
   1        2        3        4           1        2        3        4  (End of Part_H-Lead)


*** time - 3:40
Part_H'
// It is piled up to Part_H-Rythm, and it plays.
#|--------------------|--------------------|--------------------|--------------------|#
#|--------------------|--------------------|--------------------|--------------------|#
#|--------------------|--------------------|--------------------|--------------------|#
#|--5~--5~--4~--4~----|--2~1~--2~----2~----|--9~--9~--7~--7~----|--5~4~--5~----5~----|#
#|--------------------|--------------------|--------------------|--------------------|#
#|--------------------|--------------------|--------------------|--------------------|#
    1   2   3   4        1   2   3   4        1   2   3   4        1   2   3   4  (End of Part_H')


*** time - 3:46
Part_B'
Play Part_B
  Repeat it 4 times.
// The following is piled up from the third time.
#||---------------------------------------|-----------------------------------------||#
#||---------------------------------------|-----------------------------------------||#
#||o-----------------------------9p8------|--------------------------9------12p11--o||#
#||o-----------9--------10~---------9-----|-----------9--------101010---10p9-------o||#
#||---2-----------------------------------|--2--------------------------------------||#
#||---0---0-0------0-0--------------------|--0---0-0------0-0-----------------------||#
      1        2        3        4           1        2        3        4   (End of Part_B')


*** time - 4:03
Play Part_C
  Repeat it 2 times.


*** time - 4:19
Part_I
#|----------------|#
#|----------------|#
#|----------------|#
#|--2-------------|#
#|--2-------------|#
#|--0-------------|#
    1  2  3  4    (End of Part_I)

=== END OF TAB ===





Comments


Popular Dissection tabs & chords
Black Dragon Bass Tabs
At The Fathomless Depths Tabs
Black Horizons Tabs
Crimson Towers Tabs
Elisabath Bathori Tabs
Infinite Obscurity Tabs
Retribution Tabs
Son Of The Mourning Tabs
The Somberlain Tabs
Unhallowed Tabs


Song lyrics



↑ Back to top | Tablatures and chords are parodies/interpretations of the original songs. You may use it for private study, scholarship, research or language learning purposes only
© 2014 AZChords.com Contact us | Privacy policy | DMCA | Add/correct tabs | Request tabs | Top 50 tabs