» » »

Elizabeth Bathory Tabs (ver.1)

Artists:  A B C D E F G H I J K L M N O P Q R S T U V W X Y Z # 

Elizabeth Bathory Tabs (ver.1)

Dissection
Rating:
0/5 (0 votes)

Hard to play? Try these video lessons and learn fast.
                                  Dissection - Elizabeth Bathory
    
         tuning:standard(EADGBE)
         
         . = palm mute
         h = hammer on
         p = pull off


Riff 1
|-------------------------|
|-------------------------|
|--------------------5--7-|
|----99-7-99-7-99---5--7--|
|----77-5-77-5-77--3--5---|
|-------------------------|

Riff 2
|--------------------|
|--------------------|
|--------------------|
|----77---66---77----|
|----55-6-44-6-55-55-|
|-------8----8----33-|
        .    .
|--------------------|
|--------------------|
|--------------------|
|----77---66---77----|
|----55-6-44-6-55-6--|
|-------8----8----4--|
        .    .  

Riff 3
|----------------------|
|----------------------|
|----------------------|
|----9--979-979-979-9\-|
|----7--757-757-757-7\-|
|----------------------|

Riff 4
|---------------|
|---------------|
|---------------|
|------4--------|
|----2-2-5--5-4-|
|----0---3--3-2-|

Riff 5 "solo"
|----------------------|
|----------------------|
|----2-5-1-2h5p2h5p2h5p|
|----------------------|
|----------------------|
|----------------------|

|----------------------|
|----5-6-3-3h6p3h6p3h6p|
|----------------------|
|----------------------|
|----------------------|
|----------------------|

Riff 6
|----------|
|----------|
|----------|
|----3-6-2-|
|----1-4-0-|
|----------|

i hope you enjoy it;P
metal up your ass!\m/
            
Hard to play? Try these video lessons and learn fast. | Correct




comments powered by Disqus
↑ Back to top | Tablatures and chords are parodies/interpretations of the original songs. You may use it for private study, scholarship, research or language learning purposes only