» » »

Dispatch, Lightning Tabs (ver.1)

Artists:  A B C D E F G H I J K L M N O P Q R S T U V W X Y Z # 

Lightning Tabs (ver.1)

Dispatch Tabs
 Rating:
4/5 (8 votes)
Lightning lessons Tabs too difficult? Try these video lessons and learn fast
1
                
--------x---x---x---5------5---x---x---x---5------7---x---x---x---5------5----|
--b6----7---7---7---5----------7---7---7---5----------7---7---7---5--------/7-|
--------7---7---7---6---/6--6--7---7---7---6---/6--6--7---7---7---6---/6------|
--------9---9---9---7----------9---9---9---7----------9---9---9---7-----------|
--------9---9---9---7----------9---9---9---7----------9---9---9---7-----------|
--------7---7---7---5----------7---7---7---5----------7---7---7---5-----------|
 Intro

-x---x---x---5------5---x---x---x---5------7----------------------------------|
-7---7---7---5----------7---7---7---5-----------------------------------------|
-7---7---7---6---/6--6--7---7---7---6---/6---6--------------------------------|
-9---9---9---7----------9---9---9---7-----------------------------------------|
-9---9---9---7----------9---9---9---7-----------------------------------------|
-7---7---7---5----------7---7---7---5-----------------------------------------|
 Verse  x 4

------------------------------------------------------------------------------|
------------------------------------------------------------------------------|
------------------------------------------------------------------------------|
--5-x-5-x-5-x-7----5-x-5-x-5-x-5-x--------------------------------------------|
--5-x-5-x-5-x-7----5-x-5-x-5-x-5-x--------------------------------------------|
--3-x-3-x-3-x-5----3-x-3-x-3-x-3-x--------------------------------------------|
 Breakdown  x 1            Return to verse    x 2

--3---5---x-------------------------------------------------------------------|
--3---5---7-------------------------------------------------------------------|
--4---6---7-------------------------------------------------------------------|
--5---7---9-------------------------------------------------------------------|
--5---7---9-------------------------------------------------------------------|
--3---5---7-------------------------------------------------------------------|
  Chorus - Strum chords

-10---------------------------------------------------------------------------|
----12-10---------------------------------------------------------------------|
----------11-9-7---7-b9-9-7-b9-9-7-b9-9-7h9p7h9p------------------------------|
-----------------9------------------------------------------------------------|
------------------------------------------------------------------------------|
------------------------------------------------------------------------------|
 Solo
 Verse   x 4
 Chorus
 Solo - Key of B minor
 Verse   x 1
 Solo - Key of B minor
            
Submit corrections

comments powered by Disqus
↑ Back to top | Dispatch Tabs for Lightning. Lyrics for acoustic guitar and electric guitar. 1 Tablatures and chords are parodies/interpretations of the original songs. You may use it for private study, scholarship, research or language learning purposes only