>
 >
Lightning

Lightning Bass Tabs

Dispatch - Lightning chords, tabs, tablatures, lyrics

Guitar lessons | Add/correct | Request | Top 50 tabs Artists:  A B C D E F G H I J K L M N O P Q R S T U V W X Y Z 0-9

Lightning Bass Tabs – Dispatch

CD, Sheet music, Poster

Do you like Lightning? Share with your friends now
Bass TabsTabs
-------------------------------------------------------------------------------
-------------------------------------------------------------------------------


Tuning: Standard
5/4 Time Signature (Iím not going to map out the beats, you can figure it out)
  I decided to tab this song because there is no tab for it and its fun to play. I 
donít have it exactly right, but it sounds fine. The | bars arenít always a measure,
so keep that in mind. Theres not much to say... Have fun...

Added: 7.5.07
1st update: 1.14.08

Intro (0:00)
G|------------|------|---------------|---------------------------------------|
D|------------|------|---------------|---------------------------------------|
A|-----5--5h7-|-7----|-7--5--2-------|---------------------------------------|
E|------------|------|---------------|---------------------------------------|

Verse (0:15)
G|------------------|---------------|----------------------------------------|
D|------------------|---------------|----------------------------------------|
A|--7--5--2-----2-5-|-7--9--2-------|----------------------------------------|
E|-----------5------|---------------|----------------------------------------|
                                    (or pull-off)
G|------------------|---------------|-----|----------------------------------|
D|------------------|---------------|----------------------------------------|
A|--7--5--2-----2-5-|-7--5--2-------|----5/2---------------------------------|
E|-----------5------|---------------|----------------------------------------|

G|------------------|---------------|----------------------------------------|
D|------------------|---------------|----------------------------------------|
A|--7--5--2-----2-5-|-7--9--2-------|----17p15(h)17--------------------------|
E|-----------5------|---------------|----------------------------------------|

G|--------------------------|------------------------------------------------|
D|--------------------------|------------------------------------------------|
A|--19--17--14-14p12--14-17-|------------------------------------------------|
E|--------------------------|------------------------------------------------|

Verse/Chorus Transtition (0:37)
G|--------------||--------------|--------------------------------------------|
D|o------------o||--------------|--------------------------------------------|
A|o-14----12---o||--14----16----|-14----12-----------------------------------|
E|--------------||--------------|--------------------------------------------|

G|-----------------|--------------||-----------------------------------------|
D|o----------------|-------------o||-----------------------------------------|
A|o-14----14h16-16-|-14----12-12-o||-----------------------------------------|
E|-----------------|--------------||-----------------------------------------|

Chorus (1:02)
G|-------------|-----------|-------------------------------------------------|
D|o------------|-----------|-------------------------------------------------|
A|o-7-7-7-7-5--|-/12---10--|---(14)b(15)r(14)-:-:-:-:------------------------|
E|-------------|-----------|-------------------------------------------------|
                                                        1st time  2nd time
G|-------------|------------------|------------------------|---------|------||
D|-------------|------------------|----------------------------------------o||
A|--7-7-7-7-5--|--12-12-12-12-10--|---(14)b(15)r(14)-:-:-(:-:)----(14-12)--o||
E|-------------|------------------|-----------------------------------------||

Guitar Solo (1:27)
G|--------------|--------|---------------|-----------------------------------|
D|--------------|--------|---------------|-----------------------------------|
A|----17--17h19-|--19----|-19--17--14----|-9---------------------------------|
E|--------------|--------|---------------|-----------------------------------|

Verse (1:39)
G|------------------|---------------|----------------------------------------|
D|------------------|---------------|----------------------------------------|
A|--7--5--2-----2-5-|-7--9--2-------|----------------------------------------|
E|-----------5------|---------------|----------------------------------------|
                                    (or pull-off)
G|------------------|---------------|-----|----------------------------------|
D|------------------|---------------|----------------------------------------|
A|--7--5--2-----2-5-|-7--5--2-------|----5/2---------------------------------|
E|-----------5------|---------------|----------------------------------------|

G|------------------|---------------|----------------------------------------|
D|------------------|---------------|----------------------------------------|
A|--7--5--2-----2-5-|-7--9--2-------|----15(h)17-----------------------------|
E|-----------5------|---------------|----------------------------------------|

G|--------------------------|------------------------------------------------|
D|--------------------------|------------------------------------------------|
A|--19--17--14-14p12--14-17-|----14----16----16h17---------------------------|
E|--------------------------|------------------------------------------------|

Chorus (2:04)
G|-------------|-----------|-------------------------------------------------|
D|-------------|-----------|-------------------------------------------------|
A|--7-7-7-7-5--|-/12---10--|---(14)b(15)r(14)-:-:-:-:------------------------|
E|-------------|-----------|-------------------------------------------------|

G|-------------|------------------|------------------------------------------|
D|-------------|------------------|------------------------------------------|
A|--7-7-7-7-5--|--12-12-12-12-10--|---(14)b(15)r(14)-:-:-:-:-----------------|
E|-------------|------------------|------------------------------------------|
                             Triplets (3 notes per beat)
G|----------|------------|------/\-------/\-------/\-------/\-------/\-------|
D|----------|------------|----/----\---/----\---/----\---/----\---/----\-----|
A|--7\---5--|--12\---10--|---14-14-14-14-14-14-14-14-14-14-14-14-14-14-14----|
E|----------|------------|---------------------------------------------------|

G|----------|------------|---------------------------------------------------|
D|----------|------------|---------------------------------------------------|
A|--7\---5--|--12\---10--|---14---14-----------------------------------------|
E|----------|------------|---------------------------------------------------|

Guitar/DJ Solo (2:28)
G|---------|--------|--------------||----------------------------------------|
D|o--------|--------|-------------o||x5--------------------------------------|
A|o-7--7---|--------|-5--5-5------o||----------------------------------------|
E|-------7-|-7-3-3--|--------7-7---||----------------------------------------|

Verse (3:04)
G|------------------|---------------|----------------------------------------|
D|------------------|---------------|----------------------------------------|
A|--7--5--2-----2-5-|-7--9--2-------|----------------------------------------|
E|-----------5------|---------------|----------------------------------------|
                                    (or pull-off)
G|------------------|---------------|-----|----------------------------------|
D|------------------|---------------|----------------------------------------|
A|--7--5--2-----2-5-|-7--5--2-------|----5/2---------------------------------|
E|-----------5------|---------------|----------------------------------------|

G|------------------|---------------|----------------------------------------|
D|------------------|---------------|----------------------------------------|
A|--7--5--2-----2-5-|-7--9--2-------|----17p14h17/19-------------------------|
E|-----------5------|---------------|----------------------------------------|

G|-----------------------------|---------------------------------------------|
D|-----------------------------|---------------------------------------------|
A|--21--19--16-16p14--21-19-17-|----14----12---------------------------------|
E|-----------------------------|---------------------------------------------|

Verse/Solo Transition (3:28)
G|--------------||-------------------|---------------------------------------|
D|o------------o||x3-----------------|---------------------------------------|
A|o-14----12---o||--14----16--16/17--|---------------------------------------|
E|--------------||-------------------|---------------------------------------|

Guitar/DJ Solo (3:41)
G|----------|-----------|--------------|-------------------------------------|
D|----------|-----------|--------------|-------------------------------------|
A|--5--5h7--|-8-7--8-7--|-5--7-5-------|-5---------5---------5---------------|
E|----------|-----------|--------7-7-7-|---7-7-7-7---7-7-7-7---7-------------|

G|---------------|-----------|--------------|--------------------------||----|
D|o--------------|-----------|--------------|-------------------------o||-x3-|
A|o---7--5--7----|-8-7--8-7--|-5--7-5-------|-5---------5---------5---o||----|
E|--7------------|-----------|--------7-7-7-|---7-7-7-7---7-7-7-7---7--||----|

G|---------------------------------------------------------------------------|
D|---------------------------------------------------------------------------|
A|--5-7-7--------------------------------------------------------------------|
E|--------7------------------------------------------------------------------|

| /  slide up
| \  slide down
| h  hammer-on
| p  pull-off
| ~  vibrato
| b  bend up - (10)b(11) bend the 10th fret up, then play the note
|               10b(11) play 10th fret, then bend up
| r  release bend - (10)b(11)r(10.5) release the bend halfway
| +  harmonic
| x  mute note
| o| repeat bars - repeat enclosed section
| :  repeat section of measure x times
|( ) optional note/transition or ďimaginary noteĒ
===============================================================================





Comments


Popular Dispatch tabs & chords
Ride A Tear 2 Bass Tabs
Broken American Tabs
Carry You Tabs
Dem Shoes Tabs
Drive Tabs
Fats Tabs
Out Loud Tabs
Railway Tabs
Seasons Movement 3 Tabs
The General Intro Tabs


Song lyrics



↑ Back to top | Tablatures and chords are parodies/interpretations of the original songs. You may use it for private study, scholarship, research or language learning purposes only
© 2014 AZChords.com Contact us | Privacy policy | DMCA | Add/correct tabs | Request tabs | Top 50 tabs