>
 >
Hey Hey 1

Hey Hey 1 Guitar Tabs

Dispatch - Hey Hey 1 chords, tabs, tablatures, lyrics

Guitar lessons | Add/correct | Request | Top 50 tabs Artists:  A B C D E F G H I J K L M N O P Q R S T U V W X Y Z 0-9

Hey Hey 1 Guitar Tabs – Dispatch

CD, Sheet music, Poster

Do you like Hey Hey 1? Share with your friends now
ChordsChords v2TabsTabs v2Ukulele
Dispatch/One Fell Swoop
Silent Steeples
Hey Hey
Amended by Owen Sakovics

 E	B	C#  B   A	E	B	C#	G#
-0------2-------4---2---0-------0-------2-------4-------4-|
-0------4-------5---4---2-------0-------4-------5-------4-|
-1------4-------6---4---2-------1-------4-------6-------5-|	x1
-2------4-------6---4---2-------2-------4-------6-------6-|
-2------2-------4---2---0-------2-------2-------4-------6-|
-0------------------------------0-----------------------4-|

 E	B	C#m	A
-0------2-------4-------0---|
-0------4-------5-------2---|
-1------4-------6-------2---|	x4
-2------4-------6-------2---|
-2------2-------4-------0---|
-0--------------------------|

 A	C#m	E	B	A	C#m	E	B
-0------4-------0-------2-------0-------4-------0-------2-|
-2------5-------0-------4-------2-------5-------0-------4-|
-2------6-------1-------4-------2-------6-------1-------4-|	x1
-2------6-------2-------4-------2-------6-------2-------4-|
-0------4-------2-------2-------0-------6-------2-------2-|
----------------0-------------------------------0---------|

 E	B	C#m	A
-0------2-------4-------0---|
-0------4-------5-------2---|
-1------4-------6-------2---|	x2
-2------4-------6-------2---|
-2------2-------4-------0---|
-0--------------------------|

 E	B	C#m  B	 C#  B	 C#  A	 A
-0------2-------4----2---4---2---4---0---0--|
-0------4-------5----4---5---4---5---2---2--|
-1------4-------6----4---6---4---6---2---2--|	x2
-2------4-------6----4---6---4---6---2---2--|
-2------2-------4----2---4---2---4---0---0--|
-0------------------------------------------|

 A	C#m	E	B	A	C#m	E	B
-0------4-------0-------2-------0-------4-------0-------2-|
-2------5-------0-------4-------2-------5-------0-------4-|
-2------6-------1-------4-------2-------6-------1-------4-|	x1
-2------6-------2-------4-------2-------6-------2-------4-|
-0------4-------2-------2-------0-------6-------2-------2-|
----------------0-------------------------------0---------|

 E	B	C#  B	A	E	B	C#
-0------2-------4---2---0-------0-------2-------4--|
-0------4-------5---4---2-------0-------4-------5--|
-1------4-------6---4---2-------1-------4-------6--|	x1
-2------4-------6---4---2-------2-------4-------6--|
-2------2-------4---2---0-------2-------2-------4--|
-0------------------------------0------------------|

 E	B	C#  B	A	E	B	C#	G#
-0------2-------4---2---0-------0-------2-------4-------4-|
-0------4-------5---4---2-------0-------4-------5-------4-|
-1------4-------6---4---2-------1-------4-------6-------5-|	x1
-2------4-------6---4---2-------2-------4-------6-------6-|
-2------2-------4---2---0-------2-------2-------4-------6-|
-0------------------------------0-----------------------4-|

 E	B	C#m  B	 C#  B	 C#  A	 A
-0------2-------4----2---4---2---4---0---0--|
-0------4-------5----4---5---4---5---2---2--|
-1------4-------6----4---6---4---6---2---2--|	x4
-2------4-------6----4---6---4---6---2---2--|
-2------2-------4----2---4---2---4---0---0--|
-0------------------------------------------|

 E	B	C#m	A
-0------2-------4-------0---|
-0------4-------5-------2---|
-1------4-------6-------2---|	x7
-2------4-------6-------2---|
-2------2-------4-------0---|
-0--------------------------|





Comments


Popular Dispatch tabs & chords
The General Bass Tabs
Josephine Chords
Never Or Now Chords
Silent Steeples Chords
Two Coins Chords
Bang Bang 1 Tabs
Bang Bang 2 Tabs
Broken American Tabs
Past The Falls Tabs
Walk With You Tabs


Song lyrics



↑ Back to top | Tablatures and chords are parodies/interpretations of the original songs. You may use it for private study, scholarship, research or language learning purposes only
© 2014 AZChords.com Contact us | Privacy policy | DMCA | Add/correct tabs | Request tabs | Top 50 tabs