>
 >
Headlights 1

Headlights 1 Guitar Tabs

Dispatch - Headlights 1 chords, tabs, tablatures, lyrics

Guitar lessons | Add/correct | Request | Top 50 tabs Artists:  A B C D E F G H I J K L M N O P Q R S T U V W X Y Z 0-9

Headlights 1 Guitar Tabs – Dispatch

CD, Sheet music, Poster

Do you like Headlights 1? Share with your friends now
ChordsTabsTabs v2Ukulele
Song - Headlights
Artist - Dispatch
Album - Four Day Trials
                   This is my first - No longer a tab virgin, now.
  * - Let ring
  h - Hammer-on
  p - Pull-off

  It might seem difficult to let these ring but stay on the C and its not all that bad   
                 /
                                /
           Amin             C  <
  first only
E |-----|---------------------------------------------3--------------------|
B |-----|--------0h1*-X-------------0h1p0*-------0h1*---1p0*-------0h3-1p0-|
G |--X-2|--------2*---X-2----------------------0*-----------0*-------------|
D |--X-2|----2*-------X-2-------0h2*---------------------------------------|
A |----0|0*-------------0-0h2h3*---------------------------------2---------|
E |-----|------------------------------------3*----------------3-----------|
    Headlights...

E |--------------------------------------------------------|
B |-X-1-------0h1*-X-1-----------------------0-------------|
G |-X-2-------2*---X-2-----------------------0-----0-0--0--|
D |-X-2----2*------X-2----------0--2--0------0-----0-0--0--|
A |---0-0*-------------0--2--3---------------2-----2-2--2--|
E |--------------------------------------3---3-----3-3--3--|
    Highways...                                         Your

E |-----------------------------------------------3-------------------------|
B |----------0h1*-X-------------0h1p0*-------0h1*---1p0*--------------------|
G |----------2*---X-2----------------------0*-----------0*----2--2--2--2--2-|
D |------2*-------X-2-------0h2*------------------------------2--2--2--2--2-|
A |--0*-------------0-0h2h3*----------------------------------0--0--0--0--0-|
E |--------------------------------------3*---------------------------------|

    Life          collides              with      mine        oooooh     Your

E |-----------------------------------2---2-2--2----|
B |---------0h1*-------------0h1p0----0---0-0--0----|
G |---------2----2--------------------0---0-0--0----|
D |-----2*-------2-------0h2*---------0---0-0--0----|
A |--0*------------0h2h3*-------------2---2-2--2----|
E |--------------------------------3*-3---3-3--3----|

     Life         collides   with mine

   G            Am
   Leavin' our shoes behind
 C              G
   We cross the water
             Am
   Our words flow from mouth to mouth to mouth
 C                  G
   Like fish seekin' dark places
 Am
   Oh then the mist it - mist it covers
 C            G                     Am
   Covers our traces, it covers our traces

  C   G   Am(barre) G(barre) ((I think maybe...))

  C                   Am(barre) G(barre) ((Still not sure...))
   So loooooooooooong
  C
   To what's done
  G                           D (mute 1st string)
   So much time's been wasted, so many thoughts been lost on (trying to figure out the 
bridge in this f***ing song)

E |------------------------------------|
B |------------------------------------|
G |----------5--7-7h9p7-5---5----------|
D |------5h7--------------7---7-5-5h7--|
A |--5h7-------------------------------|
E |------------------------------------|

Back to the beginning:
E |-----|---------------------------------------------3--------------------|
B |-----|--------0h1*-X-------------0h1p0*-------0h1*---1p0*-------0h3-1p0-|
G |--X-2|--------2*---X-2----------------------0*-----------0*-------------|
D |--X-2|----2*-------X-2-------0h2*---------------------------------------|
A |----0|0*-------------0-0h2h3*---------------------------------2---------|
E |-----|------------------------------------3*----------------3-----------|
    Headlights...

E |--------------------------------------------------------|
B |-X-1-------0h1*-X-1-----------------------0-------------|
G |-X-2-------2*---X-2-----------------------0-----0-0--0--|
D |-X-2----2*------X-2----------0--2--0------0-----0-0--0--|
A |---0-0*-------------0--2--3---------------2-----2-2--2--|
E |--------------------------------------3---3-----3-3--3--|
    Highways...                                         Your

E |-----------------------------------------------3-------------------------|
B |----------0h1*-X-------------0h1p0*-------0h1*---1p0*--------------------|
G |----------2*---X-2----------------------0*-----------0*----2--2--2--2--2-|
D |------2*-------X-2-------0h2*------------------------------2--2--2--2--2-|
A |--0*-------------0-0h2h3*----------------------------------0--0--0--0--0-|
E |--------------------------------------3*---------------------------------|

    Life          collides              with      mine        oooooh     Your

E |-----------------------------------2---2-2--2----|
B |---------0h1*-------------0h1p0----0---0-0--0----|
G |---------2----2--------------------0---0-0--0----|
D |-----2*-------2-------0h2*---------0---0-0--0----|
A |--0*------------0h2h3*-------------2---2-2--2----|
E |--------------------------------3*-3---3-3--3----|

     Life         collides   with mine

  G                      Am
   We're steppin' in the shelter - oh
  C                  G
   We're movin' on a shadow
             Am
   Made some wrong move, along the way.
  C                  G
   Oh, we might have strayed.
                      Am
   Will I forget your face? And your fluid gate,

   Oooh will I?
  C                     G
   Will I stare into the stillness?
  Am
   Oh - into the stillness...
  C                G
   This is where I miss you.

(Then that stupid bridge again)

  C   G   Am(barre) G(barre) ((I think maybe...))

  C              Am   G (I gave up a bit ago on this part...)
   So looooooong
  C
   To what's done
  G                            D (No first string)           Am
   So much time's been wasted, so many thoughts been lost on you.
  G             C           G
   Get off that excellent fire of old.  (Huh??)
  C                                  Am    G
   Cold wind rushed down on my face.
  C
   Smoke heats the black throat of the chimney.
                C         G     Am
   The door is open, come on inside
                C         G     Am
   The door is open, come on inside
                C         G     Am
   The door is open, come on inside
                C         G     Am
   The door is open, come on inside
                C         G     Am
   The door is open, come on inside
                C         G     Am
   The door is open, come on inside
                C         G     Am
   The door is open, come on inside

E |----------------------------------|
B |--1------1-----1---1-----1-----1--|
G |----X------X---------X-----X------|
D |X------X-----X---X-----X-----X----|
A |----------------------------------|
E |----------------------------------|  4x then sing 4x then 4x and thats it.

 Your life collides with mine

Rate me well even though I can't get the stupid bridge right :)

Trevor





Comments


Popular Dispatch tabs & chords
Two Coins Bass Tabs
Out Loud 3 Chords
Bats In The Belfry Tabs
Burning The River Tabs
Go Quietly Tabs
Prince Of Spades 1 Tabs
Questioned Apocalypse Tabs
Seasons: Movement Iii Tabs
Walk With You Flute Intro Tabs
Josephine Ukulele


Song lyrics



↑ Back to top | Tablatures and chords are parodies/interpretations of the original songs. You may use it for private study, scholarship, research or language learning purposes only
© 2014 AZChords.com Contact us | Privacy policy | DMCA | Add/correct tabs | Request tabs | Top 50 tabs