» » »

Sultans Of Swing Bass tabs (ver.2)

Artists:  A B C D E F G H I J K L M N O P Q R S T U V W X Y Z # 

Sultans Of Swing Bass tabs (ver.2)

Dire Straits
Rating:
0/5 (0 votes)

Hard to play? Try these video lessons and learn fast.
                This is how I play it, sounds quite fine to me. Don't mind the vertical lines, they're 
to keep things clear.

G ---------------|
D ---------------|
A 5-55-55-53030--|
E ---------------| x4

G --------------------------|
D --------------------------|
A 5-55-53-31-10-00-00-00-0--|
E --------------------------| x2

G -------|-----|-----|-----|-----|-----|-----|------------|
D -3-3--3|-3---|-----|-----|-----|-----|-----|------------|
A -----1-|---13|-3-13|-3-31|-1--1|-1--5|-5-15|1-1-1/33-33-|
E -------|-----|-----|-----|---3-|---3-|-----|------------|

G --------------------------|
D --------------------------|
A 5-55-53-31-10-00-00-00-0--|
E --------------------------| x2

G -------|-----|-----|-----|-----|-----|-----|------------|---------------|
D -3-3---|-----|-----|-----|-----|-----|-----|------------|---------------|
A -----1-|---13|-3-13|-3-31|-1--1|-1--5|-5-15|1-1-1/33-3-3|1-1-1/33-3-3-3-|
E ------1|-1---|-----|-----|---3-|---3-|-----|------------|---------------|

G ---------------------|
D ---------------------|
A 5-531-1---13-3-13-3--|
E --------33-----------| x2

G -----------------------------|
D -----------------------------|
A 5-55-53-31-10-00-00-00-00-0--|
E -----------------------------| x2

G -------|-----|-----|-----|-----|-----|-----|---------------|
D -3-3---|-----|-----|-----|-----|-----|-----|---------------|
A -----1-|---13|-3-13|-3-31|-1--1|-1--5|-5-15|1-1-1/33-3-3-3-|
E ------1|-1---|-----|-----|---3-|---3-|-----|---------------|

G -----------------------------|
D -----------------------------|
A 5-55-53-31-10-00-00-00-00-0--|
E -----------------------------| x2


G -------|-----|-----|-----|-----|-----|-----|------------|---------------|
D -3-3---|-----|-----|-----|-----|-----|-----|------------|---------------|
A -----1-|---13|-3-13|-3-31|-1--1|-1--5|-5-15|1-1-1/33-3-3|1-1-1/33-3-3-3-|
E ------1|-1---|-----|-----|---3-|---3-|-----|------------|---------------|

G ---------------------|
D ---------------------|
A 5-531-1---13-3-13-3--|
E --------33-----------| x2

G -----------------------------|
D -----------------------------|
A 5-55-53-31-10-00-00-00-00-0--|
E -----------------------------| x2


G -------|-----|-----|-----|-----|-----|-----|------------|---------------|
D -3-3---|-----|-----|-----|-----|-----|-----|------------|---------------|
A -----1-|---13|-3-13|-3-31|-1--1|-1--5|-5-15|1-1-1/33-3-3|1-1-1/33-3-3-3-|
E ------1|-1---|-----|-----|---3-|---3-|-----|------------|---------------|

G ---------------------|
D ---------------------|
A 5-531-1---13-3-13-3--|
E --------33-----------| x2

G -----------------------------|
D -----------------------------|
A 5-55-53-31-10-00-00-00-00-0--|
E -----------------------------| x2

G -------|-----|-----|-----|-----|-----|-----|------------|---------------|
D -3-3---|-----|-----|-----|-----|-----|-----|------------|---------------|
A -----1-|---13|-3-13|-3-31|-1--1|-1--5|-5-15|1-1-1/33-3-3|1-1-1/33-3-3-3-|
E ------1|-1---|-----|-----|---3-|---3-|-----|------------|---------------|

G ---------------------|
D ---------------------|
A 5-531-1---13-3-13-3--|
E --------33-----------| x2

G -----------------------------|
D -----------------------------|
A 5-55-53-31-10-00-00-00-00-0--|
E -----------------------------| x2

G -------|-----|-----|-----|-----|-----|-----|------------|---------------|
D -3-3--3|-3---|-----|-----|-----|-----|-----|------------|---------------|
A -----1-|---13|-3-13|-3-31|-1--1|-1--5|-5-15|1-1-1/33-3-3|1-1-1/33-3-3-3-|
E -------|-----|-----|-----|---3-|---3-|-----|------------|---------------|

G ---------------------|
D ---------------------|
A 5-531-1---13-3-13-3--|
E --------33-----------| x4

G ----------------------|
D ---753----------------|
A 5-5---1-1---13-3-13-3-|
E ----------33----------| until the end
            
Hard to play? Try these video lessons and learn fast. | Correct




comments powered by Disqus
↑ Back to top | Tablatures and chords are parodies/interpretations of the original songs. You may use it for private study, scholarship, research or language learning purposes only