» » »

Sultans Of Swing 2 Tabs

Artists:  A B C D E F G H I J K L M N O P Q R S T U V W X Y Z # 

Sultans Of Swing 2 Tabs

(ver. 1)
Dire Straits Tabs
 Rating:
4/5 (4 votes)
    Sultans Of Swing lessons Tabs too difficult? Try these video lessons and learn fast
                Sultans Of Swing                                 

                                                                    

                                                                           
E||------|------|-----------5--5----5--------|--------------5----5-----5--|
B||------|------|---------6----6----6-----6--|--6--------x--6----6-----6--|
G||------|------|-------7------7----7--x--7--|--7------x----7----7--x--7--|
D||------|------|-----7--------7----7--x--7--|--7----x------7----7--x--7--|
A||------|------|--5-----------5-------x-----|--5--x----------------x-----|
E||------|------|--5-------------------------|----------------------------|


                                                          
--------------5----5-----5--|--------------5----5-----5--|
--6--------x--6----6-----6--|--6--------x--6----6-----6--|
--7------x----7----7--x--7--|--7------x----7----7--x--7--|
--7----x------7----7--x--7--|--7----x------7----7--x--7--|
--5--x----------------x-----|--5--x----------------x-----|
----------------------------|----------------------------|


                                                          
--------------5----5-----5--|--------------5----5-----5--|
--6--------x--6----6-----6--|--6--------x--6----6-----6--|
--7------x----7----7--x--7--|--7------x----7----7--x--7--|
--7----x------7----7--x--7--|--7----x------7----7--x--7--|
--5--x----------------x-----|--5--x----------------x-----|
----------------------------|----------------------------|


                                                          
--------------5----5-----5--|--------------5----5-----5--|
--6--------x--6----6-----6--|--6--------x--6----6-----6--|
--7------x----7----7--x--7--|--7------x----7----7--x--7--|
--7----x------7----7--x--7--|--7----x------7----7--x--7--|
--5--x----------------x-----|--5--x----------------x-----|
----------------------------|----------------------------|


                                                                            
--5-------5----5--------|---------------------5--|--5--5--x--5----5--x--5--|
--6----x--6----6--x--5--|----5--x--3--3----x--5--|--5--5--x--5----5--x--5--|
--7----x--7----7--x--5--|----5--x--3--3----x--6--|--6--6--x--6----6--x--6--|
--7----x--7----7--x--5--|----5--x--3--3----x--7--|--7--7--x--7----7--x--7--|
--5----x--5----5--x--3--|----3--x--1--1----x--7--|--7--7--x--7----7--x--7--|
------------------------|---------------------5--|--5--5--x--5----5--x--5--|


                                                                              
--5-----------------------|--5--5--x--5----5--x-----|---------------------5--|
--5--5-5-5--5----5--5--5--|--6--6--x--6----6--x--5--|----5--x--3--3----x--5--|
--6--0-0-0--0----0--0--0--|--7--7--x--7----7--x--5--|----5--x--3--3----x--6--|
--7--7-7-7--7----7--7--7--|--7--7--x--7----7--x--5--|----5--x--3--3----x--7--|
--7--7-7-7--7----7--7--7--|--5--5--x--5----5--x--3--|----3--x--1--1----x--7--|
--5-----------------------|-------------------------|---------------------5--|


                                                        
--5--5--x--5--5--5--x--5--|--5--5--x--5----5--x--------|
--5--5--x--5--5--5--x--5--|--5--5--x--5----5--x--10-10-|
--6--6--x--6--6--6--x--6--|--6--6--x--6----6--x--10-10-|
--7--7--x--7--7--7--x--7--|--7--7--x--7----7--x--10-10-|
--7--7--x--7--7--7--x--7--|--7--7--x--7----7--x--8--8--|
--5--5--x--5--5--5--x--5--|--5--5--x--5----5--x--------|


                                                                
----------------------------|------------------------------8---|
--10----x--10----10--x--10--|--10--10-10-x--10--10--10--x--8---|
--10----x--10----10--x--10--|--10--10-10-x--10--10--10--x--9---|
--10----x--10----10--x--10--|--10--10-10-x--10--10--10--x--10--|
--8-----x--8-----8---x--8---|--8---8--8--x--8---8---8---x--10--|
----------------------------|------------------------------8---|


                                                               
--8---8---x--8-----8---x--8---|--8---8--8--x--8-----8---x--6--|
--8---8---x--8-----8---x--8---|--8---8--8--x--8-----8---x--6--|
--9---9---x--9-----9---x--9---|--9---9--9--x--9-----9---x--7--|
--10--10--x--10----10--x--10--|--10--10-10-x--10----10--x--8--|
--10--10--x--10----10--x--10--|--10--10-10-x--10----10--x--8--|
--8---8---x--8-----8---x--8---|--8---8--8--x--8-----8---x--6--|


                                                     
--6----x--6--6--6--x--6--|--6--6--x--6--6--6--x--x--|
--6----x--6--6--6--x--6--|--6--6--x--6--6--6--x--x--|
--7----x--7--7--7--x--7--|--7--7--x--7--7--7--x--x--|
--8----x--8--8--8--x--8--|--8--8--x--8--8--8--x--x--|
--8----x--8--8--8--x--8--|--8--8--x--8--8--8--x--x--|
--6----x--6--6--6--x--6--|--6--6--x--6--6--6--x--x--|


                                                                               
--5--5-5-x--5--5--5--x--5--|--5----x---------------|--------------------------|
--6--6-6-x--6--6--6--x--6--|--6----x--3----3----3--|--3/-5--x--5--5--5--x--5--|
--7--7-7-x--7--7--7--x--7--|--7----x--3----3----3--|--3/-5--x--5--5--5--x--5--|
--7--7-7-x--7--7--7--x--7--|--7----x--3----3----3--|--3/-5--x--5--5--5--x--5--|
--5--5-5-x--5--5--5--x--5--|--5----x--1----1----1--|--1/-3--x--3--3--3--x--3--|
---------------------------|-----------------------|--------------------------|


                                                                            
-------------------------|--5-------5----5--------|---------------------5--|
--5--5--x--5--5----x--x--|--6----x--6----6--x--5--|----5--x--3--3----x--5--|
--5--5--x--5--5----x--x--|--7----x--7----7--x--5--|----5--x--3--3----x--6--|
--5--5--x--5--5----x--x--|--7----x--7----7--x--5--|----5--x--3--3----x--7--|
--3--3--x--3--3----x--x--|--5----x--5----5--x--3--|----3--x--1--1----x--7--|
-------------------------|------------------------|---------------------5--|


                                                                               
--5--5--x--5----5--x--5--|--5-----------------------|--5--5--x--5----5--x-----|
--5--5--x--5----5--x--5--|--5--5-5-5--5----5--5--5--|--6--6--x--6----6--x--5--|
--6--6--x--6----6--x--6--|--6--0-0-0--0----0--0--0--|--7--7--x--7----7--x--5--|
--7--7--x--7----7--x--7--|--7--7-7-7--7----7--7--7--|--7--7--x--7----7--x--5--|
--7--7--x--7----7--x--7--|--7--7-7-7--7----7--7--7--|--5--5--x--5----5--x--3--|
--5--5--x--5----5--x--5--|--5-----------------------|-------------------------|


                                                    
---------------------5--|--5--5--x--5--5--5--x--5--|
----5--x--3--3----x--5--|--5--5--x--5--5--5--x--5--|
----5--x--3--3----x--6--|--6--6--x--6--6--6--x--6--|
----5--x--3--3----x--7--|--7--7--x--7--7--7--x--7--|
----3--x--1--1----x--7--|--7--7--x--7--7--7--x--7--|
---------------------5--|--5--5--x--5--5--5--x--5--|


                                                          
--5--5--x--5----5--x--------|----------------------------|
--5--5--x--5----5--x--10-10-|--10----x--10----10--x--10--|
--6--6--x--6----6--x--10-10-|--10----x--10----10--x--10--|
--7--7--x--7----7--x--10-10-|--10----x--10----10--x--10--|
--7--7--x--7----7--x--8--8--|--8-----x--8-----8---x--8---|
--5--5--x--5----5--x--------|----------------------------|


                                                                  
------------------------------8---|--8---8---x--8-----8---x--8---|
--10--10-10-x--10--10--10--x--8---|--8---8---x--8-----8---x--8---|
--10--10-10-x--10--10--10--x--9---|--9---9---x--9-----9---x--9---|
--10--10-10-x--10--10--10--x--10--|--10--10--x--10----10--x--10--|
--8---8--8--x--8---8---8---x--10--|--10--10--x--10----10--x--10--|
------------------------------8---|--8---8---x--8-----8---x--8---|


                                                          
--8---8--8--x--8-----8---x--6--|--6----x--6--6--6--x--6--|
--8---8--8--x--8-----8---x--6--|--6----x--6--6--6--x--6--|
--9---9--9--x--9-----9---x--7--|--7----x--7--7--7--x--7--|
--10--10-10-x--10----10--x--8--|--8----x--8--8--8--x--8--|
--10--10-10-x--10----10--x--8--|--8----x--8--8--8--x--8--|
--8---8--8--x--8-----8---x--6--|--6----x--6--6--6--x--6--|


                                                                               
--6--6--x--6--6--6--x--x--|--5--5-5-x--5--5--5--x--5--|--5----x---------------|
--6--6--x--6--6--6--x--x--|--6--6-6-x--6--6--6--x--6--|--6----x--3----3----3--|
--7--7--x--7--7--7--x--x--|--7--7-7-x--7--7--7--x--7--|--7----x--3----3----3--|
--8--8--x--8--8--8--x--x--|--7--7-7-x--7--7--7--x--7--|--7----x--3----3----3--|
--8--8--x--8--8--8--x--x--|--5--5-5-x--5--5--5--x--5--|--5----x--1----1----1--|
--6--6--x--6--6--6--x--x--|---------------------------|-----------------------|


                                                                               
--------------------------|------------------------|--------------------------|
--3/-5--x--5--5--5--x--5--|--5--5--x--3----3----3--|--3/-5--x--5--5--5--x--5--|
--3/-5--x--5--5--5--x--5--|--5--5--x--3----3----3--|--3/-5--x--5--5--5--x--5--|
--3/-5--x--5--5--5--x--5--|--5--5--x--3----3----3--|--3/-5--x--5--5--5--x--5--|
--1/-3--x--3--3--3--x--3--|--3--3--x--1----1----1--|--1/-3--x--3--3--3--x--3--|
--------------------------|------------------------|--------------------------|


                                                                             
-----------------------|--5--5--x--5--5-----x-----|-------------------------|
--5----x--5------x--5--|--6--6--x--6--6--5--x--3--|--3--3--x--3----3--x--5--|
--5----x--5------x--5--|--7--7--x--7--7--5--x--3--|--3--3--x--3----3--x--5--|
--5----x--5------x--5--|--7--7--x--7--7--5--x--3--|--3--3--x--3----3--x--5--|
--3----x--3------x--3--|--5--5--x--5--5--3--x--1--|--1--1--x--1----1--x--3--|
-----------------------|--------------------------|-------------------------|


                                                       
--------------------------|---------------------------|
--5--5--x--5--x--5--x--5--|--5--5-5-x--5--5--5--x--x--|
--5--5--x--5--x--5--x--5--|--5--5-5-x--5--5--5--x--x--|
--5--5--x--5--x--5--x--5--|--5--5-5-x--5--5--5--x--x--|
--3--3--x--3--x--3--x--3--|--3--3-3-x--3--3--3--x--x--|
--------------------------|---------------------------|


                                                                                
--5--5-5-x--5--5-----x-----|--------------------------|------------------------|
--6--6-6-x--6--6--5--x--3--|--3--3-3-x--3--3----x--5--|--5----x--5----5--x--5--|
--7--7-7-x--7--7--5--x--3--|--3--3-3-x--3--3----x--5--|--5----x--5----5--x--5--|
--7--7-7-x--7--7--5--x--3--|--3--3-3-x--3--3----x--5--|--5----x--5----5--x--5--|
--5--5-5-x--5--5--3--x--1--|--1--1-1-x--1--1----x--3--|--3----x--3----3--x--3--|
---------------------------|--------------------------|------------------------|


                                                                            
-------------------------|--5-------5----5--------|---------------------5--|
--5--5--x--5----5--x-----|--6----x--6----6--x--5--|----5--x--3--3----x--5--|
--5--5--x--5----5--x-----|--7----x--7----7--x--5--|----5--x--3--3----x--6--|
--5--5--x--5----5--x-----|--7----x--7----7--x--5--|----5--x--3--3----x--7--|
--3--3--x--3----3--x--5--|--5----x--5----5--x--3--|----3--x--1--1----x--7--|
-------------------------|------------------------|---------------------5--|


                                                                               
--5--5--x--5----5--x--5--|--5-----------------------|--5--5--x--5----5--x-----|
--5--5--x--5----5--x--5--|--5--5-5-5--5----5--5--5--|--6--6--x--6----6--x--5--|
--6--6--x--6----6--x--6--|--6--0-0-0--0----0--0--0--|--7--7--x--7----7--x--5--|
--7--7--x--7----7--x--7--|--7--7-7-7--7----7--7--7--|--7--7--x--7----7--x--5--|
--7--7--x--7----7--x--7--|--7--7-7-7--7----7--7--7--|--5--5--x--5----5--x--3--|
--5--5--x--5----5--x--5--|--5-----------------------|-------------------------|


                                                    
---------------------5--|--5--5--x--5--5--5--x--5--|
----5--x--3--3----x--5--|--5--5--x--5--5--5--x--5--|
----5--x--3--3----x--6--|--6--6--x--6--6--6--x--6--|
----5--x--3--3----x--7--|--7--7--x--7--7--7--x--7--|
----3--x--1--1----x--7--|--7--7--x--7--7--7--x--7--|
---------------------5--|--5--5--x--5--5--5--x--5--|


                                                          
--5--5--x--5----5--x--------|----------------------------|
--5--5--x--5----5--x--10-10-|--10----x--10----10--x--10--|
--6--6--x--6----6--x--10-10-|--10----x--10----10--x--10--|
--7--7--x--7----7--x--10-10-|--10----x--10----10--x--10--|
--7--7--x--7----7--x--8--8--|--8-----x--8-----8---x--8---|
--5--5--x--5----5--x--------|----------------------------|


                                                                  
------------------------------8---|--8---8---x--8-----8---x--8---|
--10--10-10-x--10--10--10--x--8---|--8---8---x--8-----8---x--8---|
--10--10-10-x--10--10--10--x--9---|--9---9---x--9-----9---x--9---|
--10--10-10-x--10--10--10--x--10--|--10--10--x--10----10--x--10--|
--8---8--8--x--8---8---8---x--10--|--10--10--x--10----10--x--10--|
------------------------------8---|--8---8---x--8-----8---x--8---|


                                                          
--8---8--8--x--8-----8---x--6--|--6----x--6--6--6--x--6--|
--8---8--8--x--8-----8---x--6--|--6----x--6--6--6--x--6--|
--9---9--9--x--9-----9---x--7--|--7----x--7--7--7--x--7--|
--10--10-10-x--10----10--x--8--|--8----x--8--8--8--x--8--|
--10--10-10-x--10----10--x--8--|--8----x--8--8--8--x--8--|
--8---8--8--x--8-----8---x--6--|--6----x--6--6--6--x--6--|


                                                                               
--6--6--x--6--6--6--x--x--|--5--5-5-x--5--5--5--x--5--|--5----x---------------|
--6--6--x--6--6--6--x--x--|--6--6-6-x--6--6--6--x--6--|--6----x--3----3----3--|
--7--7--x--7--7--7--x--x--|--7--7-7-x--7--7--7--x--7--|--7----x--3----3----3--|
--8--8--x--8--8--8--x--x--|--7--7-7-x--7--7--7--x--7--|--7----x--3----3----3--|
--8--8--x--8--8--8--x--x--|--5--5-5-x--5--5--5--x--5--|--5----x--1----1----1--|
--6--6--x--6--6--6--x--x--|---------------------------|-----------------------|


                                                                              
--------------------------|-------------------------|--5-------5----5--------|
--3/-5--x--5--5--5--x--5--|--5--5--x--5--5----x--x--|--6----x--6----6--x--5--|
--3/-5--x--5--5--5--x--5--|--5--5--x--5--5----x--x--|--7----x--7----7--x--5--|
--3/-5--x--5--5--5--x--5--|--5--5--x--5--5----x--x--|--7----x--7----7--x--5--|
--1/-3--x--3--3--3--x--3--|--3--3--x--3--3----x--x--|--5----x--5----5--x--3--|
--------------------------|-------------------------|------------------------|


                                                                              
---------------------5--|--5--5--x--5----5--x--5--|--5-----------------------|
----5--x--3--3----x--5--|--5--5--x--5----5--x--5--|--5--5-5-5--5----5--5--5--|
----5--x--3--3----x--6--|--6--6--x--6----6--x--6--|--6--0-0-0--0----0--0--0--|
----5--x--3--3----x--7--|--7--7--x--7----7--x--7--|--7--7-7-7--7----7--7--7--|
----3--x--1--1----x--7--|--7--7--x--7----7--x--7--|--7--7-7-7--7----7--7--7--|
---------------------5--|--5--5--x--5----5--x--5--|--5-----------------------|


                                                                              
--5--5--x--5----5--x-----|---------------------5--|--5--5--x--5--5--5--x--5--|
--6--6--x--6----6--x--5--|----5--x--3--3----x--5--|--5--5--x--5--5--5--x--5--|
--7--7--x--7----7--x--5--|----5--x--3--3----x--6--|--6--6--x--6--6--6--x--6--|
--7--7--x--7----7--x--5--|----5--x--3--3----x--7--|--7--7--x--7--7--7--x--7--|
--5--5--x--5----5--x--3--|----3--x--1--1----x--7--|--7--7--x--7--7--7--x--7--|
-------------------------|---------------------5--|--5--5--x--5--5--5--x--5--|


                                                          
--5--5--x--5----5--x--------|----------------------------|
--5--5--x--5----5--x--10-10-|--10----x--10----10--x--10--|
--6--6--x--6----6--x--10-10-|--10----x--10----10--x--10--|
--7--7--x--7----7--x--10-10-|--10----x--10----10--x--10--|
--7--7--x--7----7--x--8--8--|--8-----x--8-----8---x--8---|
--5--5--x--5----5--x--------|----------------------------|


                                                                  
------------------------------8---|--8---8---x--8-----8---x--8---|
--10--10-10-x--10--10--10--x--8---|--8---8---x--8-----8---x--8---|
--10--10-10-x--10--10--10--x--9---|--9---9---x--9-----9---x--9---|
--10--10-10-x--10--10--10--x--10--|--10--10--x--10----10--x--10--|
--8---8--8--x--8---8---8---x--10--|--10--10--x--10----10--x--10--|
------------------------------8---|--8---8---x--8-----8---x--8---|


                                                          
--8---8--8--x--8-----8---x--6--|--6----x--6--6--6--x--6--|
--8---8--8--x--8-----8---x--6--|--6----x--6--6--6--x--6--|
--9---9--9--x--9-----9---x--7--|--7----x--7--7--7--x--7--|
--10--10-10-x--10----10--x--8--|--8----x--8--8--8--x--8--|
--10--10-10-x--10----10--x--8--|--8----x--8--8--8--x--8--|
--8---8--8--x--8-----8---x--6--|--6----x--6--6--6--x--6--|


                                                                               
--6--6--x--6--6--6--x--x--|--5--5-5-x--5--5--5--x--5--|--5----x---------------|
--6--6--x--6--6--6--x--x--|--6--6-6-x--6--6--6--x--6--|--6----x--3----3----3--|
--7--7--x--7--7--7--x--x--|--7--7-7-x--7--7--7--x--7--|--7----x--3----3----3--|
--8--8--x--8--8--8--x--x--|--7--7-7-x--7--7--7--x--7--|--7----x--3----3----3--|
--8--8--x--8--8--8--x--x--|--5--5-5-x--5--5--5--x--5--|--5----x--1----1----1--|
--6--6--x--6--6--6--x--x--|---------------------------|-----------------------|


                                                                               
--------------------------|------------------------|--------------------------|
--3/-5--x--5--5--5--x--5--|--5--5--x--3----3----3--|--3/-5--x--5--5--5--x--5--|
--3/-5--x--5--5--5--x--5--|--5--5--x--3----3----3--|--3/-5--x--5--5--5--x--5--|
--3/-5--x--5--5--5--x--5--|--5--5--x--3----3----3--|--3/-5--x--5--5--5--x--5--|
--1/-3--x--3--3--3--x--3--|--3--3--x--1----1----1--|--1/-3--x--3--3--3--x--3--|
--------------------------|------------------------|--------------------------|


                                                                             
-----------------------|--5--5--x--5--5-----x-----|-------------------------|
--5----x--5------x--5--|--6--6--x--6--6--5--x--3--|--3--3--x--3----3--x--5--|
--5----x--5------x--5--|--7--7--x--7--7--5--x--3--|--3--3--x--3----3--x--5--|
--5----x--5------x--5--|--7--7--x--7--7--5--x--3--|--3--3--x--3----3--x--5--|
--3----x--3------x--3--|--5--5--x--5--5--3--x--1--|--1--1--x--1----1--x--3--|
-----------------------|--------------------------|-------------------------|


                                                       
--------------------------|---------------------------|
--5--5--x--5--x--5--x--5--|--5--5-5-x--5--5--5--x--x--|
--5--5--x--5--x--5--x--5--|--5--5-5-x--5--5--5--x--x--|
--5--5--x--5--x--5--x--5--|--5--5-5-x--5--5--5--x--x--|
--3--3--x--3--x--3--x--3--|--3--3-3-x--3--3--3--x--x--|
--------------------------|---------------------------|


                                                                                
--5--5-5-x--5--5-----x-----|--------------------------|------------------------|
--6--6-6-x--6--6--5--x--3--|--3--3-3-x--3--3----x--5--|--5----x--5----5--x--5--|
--7--7-7-x--7--7--5--x--3--|--3--3-3-x--3--3----x--5--|--5----x--5----5--x--5--|
--7--7-7-x--7--7--5--x--3--|--3--3-3-x--3--3----x--5--|--5----x--5----5--x--5--|
--5--5-5-x--5--5--3--x--1--|--1--1-1-x--1--1----x--3--|--3----x--3----3--x--3--|
---------------------------|--------------------------|------------------------|


                                                                            
-------------------------|--5-------5----5--------|---------------------5--|
--5--5--x--5----5--x-----|--6----x--6----6--x--5--|----5--x--3--3----x--5--|
--5--5--x--5----5--x-----|--7----x--7----7--x--5--|----5--x--3--3----x--6--|
--5--5--x--5----5--x-----|--7----x--7----7--x--5--|----5--x--3--3----x--7--|
--3--3--x--3----3--x--5--|--5----x--5----5--x--3--|----3--x--1--1----x--7--|
-------------------------|------------------------|---------------------5--|


                                                                               
--5--5--x--5----5--x--5--|--5-----------------------|--5--5--x--5----5--x-----|
--5--5--x--5----5--x--5--|--5--5-5-5--5----5--5--5--|--6--6--x--6----6--x--5--|
--6--6--x--6----6--x--6--|--6--0-0-0--0----0--0--0--|--7--7--x--7----7--x--5--|
--7--7--x--7----7--x--7--|--7--7-7-7--7----7--7--7--|--7--7--x--7----7--x--5--|
--7--7--x--7----7--x--7--|--7--7-7-7--7----7--7--7--|--5--5--x--5----5--x--3--|
--5--5--x--5----5--x--5--|--5-----------------------|-------------------------|


                                                    
---------------------5--|--5--5--x--5--5--5--x--5--|
----5--x--3--3----x--5--|--5--5--x--5--5--5--x--5--|
----5--x--3--3----x--6--|--6--6--x--6--6--6--x--6--|
----5--x--3--3----x--7--|--7--7--x--7--7--7--x--7--|
----3--x--1--1----x--7--|--7--7--x--7--7--7--x--7--|
---------------------5--|--5--5--x--5--5--5--x--5--|


                                                          
--5--5--x--5----5--x--------|----------------------------|
--5--5--x--5----5--x--10-10-|--10----x--10----10--x--10--|
--6--6--x--6----6--x--10-10-|--10----x--10----10--x--10--|
--7--7--x--7----7--x--10-10-|--10----x--10----10--x--10--|
--7--7--x--7----7--x--8--8--|--8-----x--8-----8---x--8---|
--5--5--x--5----5--x--------|----------------------------|


                                                                  
------------------------------8---|--8---8---x--8-----8---x--8---|
--10--10-10-x--10--10--10--x--8---|--8---8---x--8-----8---x--8---|
--10--10-10-x--10--10--10--x--9---|--9---9---x--9-----9---x--9---|
--10--10-10-x--10--10--10--x--10--|--10--10--x--10----10--x--10--|
--8---8--8--x--8---8---8---x--10--|--10--10--x--10----10--x--10--|
------------------------------8---|--8---8---x--8-----8---x--8---|


                                                          
--8---8--8--x--8-----8---x--6--|--6----x--6--6--6--x--6--|
--8---8--8--x--8-----8---x--6--|--6----x--6--6--6--x--6--|
--9---9--9--x--9-----9---x--7--|--7----x--7--7--7--x--7--|
--10--10-10-x--10----10--x--8--|--8----x--8--8--8--x--8--|
--10--10-10-x--10----10--x--8--|--8----x--8--8--8--x--8--|
--8---8--8--x--8-----8---x--6--|--6----x--6--6--6--x--6--|


                                                                               
--6--6--x--6--6--6--x--x--|--5--5-5-x--5--5--5--x--5--|--5----x---------------|
--6--6--x--6--6--6--x--x--|--6--6-6-x--6--6--6--x--6--|--6----x--3----3----3--|
--7--7--x--7--7--7--x--x--|--7--7-7-x--7--7--7--x--7--|--7----x--3----3----3--|
--8--8--x--8--8--8--x--x--|--7--7-7-x--7--7--7--x--7--|--7----x--3----3----3--|
--8--8--x--8--8--8--x--x--|--5--5-5-x--5--5--5--x--5--|--5----x--1----1----1--|
--6--6--x--6--6--6--x--x--|---------------------------|-----------------------|


                                                                               
--------------------------|------------------------|--------------------------|
--3/-5--x--5--5--5--x--5--|--5--5--x--3----3----3--|--3/-5--x--5--5--5--x--5--|
--3/-5--x--5--5--5--x--5--|--5--5--x--3----3----3--|--3/-5--x--5--5--5--x--5--|
--3/-5--x--5--5--5--x--5--|--5--5--x--3----3----3--|--3/-5--x--5--5--5--x--5--|
--1/-3--x--3--3--3--x--3--|--3--3--x--1----1----1--|--1/-3--x--3--3--3--x--3--|
--------------------------|------------------------|--------------------------|


                                                                             
-----------------------|--5--5--x--5--5-----x-----|-------------------------|
--5----x--5------x--5--|--6--6--x--6--6--5--x--3--|--3--3--x--3----3--x--5--|
--5----x--5------x--5--|--7--7--x--7--7--5--x--3--|--3--3--x--3----3--x--5--|
--5----x--5------x--5--|--7--7--x--7--7--5--x--3--|--3--3--x--3----3--x--5--|
--3----x--3------x--3--|--5--5--x--5--5--3--x--1--|--1--1--x--1----1--x--3--|
-----------------------|--------------------------|-------------------------|


                                                       
--------------------------|---------------------------|
--5--5--x--5--x--5--x--5--|--5--5-5-x--5--5--5--x--x--|
--5--5--x--5--x--5--x--5--|--5--5-5-x--5--5--5--x--x--|
--5--5--x--5--x--5--x--5--|--5--5-5-x--5--5--5--x--x--|
--3--3--x--3--x--3--x--3--|--3--3-3-x--3--3--3--x--x--|
--------------------------|---------------------------|


                                                                                
--5--5-5-x--5--5-----x-----|--------------------------|------------------------|
--6--6-6-x--6--6--5--x--3--|--3--3-3-x--3--3----x--5--|--5----x--5----5--x--5--|
--7--7-7-x--7--7--5--x--3--|--3--3-3-x--3--3----x--5--|--5----x--5----5--x--5--|
--7--7-7-x--7--7--5--x--3--|--3--3-3-x--3--3----x--5--|--5----x--5----5--x--5--|
--5--5-5-x--5--5--3--x--1--|--1--1-1-x--1--1----x--3--|--3----x--3----3--x--3--|
---------------------------|--------------------------|------------------------|


                                                                            
-------------------------|--5-------5----5--------|---------------------5--|
--5--5--x--5----5--x-----|--6----x--6----6--x--5--|----5--x--3--3----x--5--|
--5--5--x--5----5--x-----|--7----x--7----7--x--5--|----5--x--3--3----x--6--|
--5--5--x--5----5--x-----|--7----x--7----7--x--5--|----5--x--3--3----x--7--|
--3--3--x--3----3--x--5--|--5----x--5----5--x--3--|----3--x--1--1----x--7--|
-------------------------|------------------------|---------------------5--|


                                                                               
--5--5--x--5----5--x--5--|--5-----------------------|--5--5--x--5----5--x-----|
--5--5--x--5----5--x--5--|--5--5-5-5--5----5--5--5--|--6--6--x--6----6--x--5--|
--6--6--x--6----6--x--6--|--6--0-0-0--0----0--0--0--|--7--7--x--7----7--x--5--|
--7--7--x--7----7--x--7--|--7--7-7-7--7----7--7--7--|--7--7--x--7----7--x--5--|
--7--7--x--7----7--x--7--|--7--7-7-7--7----7--7--7--|--5--5--x--5----5--x--3--|
--5--5--x--5----5--x--5--|--5-----------------------|-------------------------|


                                                    
---------------------5--|--5--5--x--5--5--5--x--5--|
----5--x--3--3----x--5--|--5--5--x--5--5--5--x--5--|
----5--x--3--3----x--6--|--6--6--x--6--6--6--x--6--|
----5--x--3--3----x--7--|--7--7--x--7--7--7--x--7--|
----3--x--1--1----x--7--|--7--7--x--7--7--7--x--7--|
---------------------5--|--5--5--x--5--5--5--x--5--|


                                                          
--5--5--x--5----5--x--------|----------------------------|
--5--5--x--5----5--x--10-10-|--10----x--10----10--x--10--|
--6--6--x--6----6--x--10-10-|--10----x--10----10--x--10--|
--7--7--x--7----7--x--10-10-|--10----x--10----10--x--10--|
--7--7--x--7----7--x--8--8--|--8-----x--8-----8---x--8---|
--5--5--x--5----5--x--------|----------------------------|


                                                                  
------------------------------8---|--8---8---x--8-----8---x--8---|
--10--10-10-x--10--10--10--x--8---|--8---8---x--8-----8---x--8---|
--10--10-10-x--10--10--10--x--9---|--9---9---x--9-----9---x--9---|
--10--10-10-x--10--10--10--x--10--|--10--10--x--10----10--x--10--|
--8---8--8--x--8---8---8---x--10--|--10--10--x--10----10--x--10--|
------------------------------8---|--8---8---x--8-----8---x--8---|


                                                          
--8---8--8--x--8-----8---x--6--|--6----x--6--6--6--x--6--|
--8---8--8--x--8-----8---x--6--|--6----x--6--6--6--x--6--|
--9---9--9--x--9-----9---x--7--|--7----x--7--7--7--x--7--|
--10--10-10-x--10----10--x--8--|--8----x--8--8--8--x--8--|
--10--10-10-x--10----10--x--8--|--8----x--8--8--8--x--8--|
--8---8--8--x--8-----8---x--6--|--6----x--6--6--6--x--6--|


                                                                               
--6--6--x--6--6--6--x--x--|--5--5-5-x--5--5--5--x--5--|--5----x---------------|
--6--6--x--6--6--6--x--x--|--6--6-6-x--6--6--6--x--6--|--6----x--3----3----3--|
--7--7--x--7--7--7--x--x--|--7--7-7-x--7--7--7--x--7--|--7----x--3----3----3--|
--8--8--x--8--8--8--x--x--|--7--7-7-x--7--7--7--x--7--|--7----x--3----3----3--|
--8--8--x--8--8--8--x--x--|--5--5-5-x--5--5--5--x--5--|--5----x--1----1----1--|
--6--6--x--6--6--6--x--x--|---------------------------|-----------------------|


                                                                               
--------------------------|------------------------|--------------------------|
--3/-5--x--5--5--5--x--5--|--5--5--x--3----3----3--|--3/-5--x--5--5--5--x--5--|
--3/-5--x--5--5--5--x--5--|--5--5--x--3----3----3--|--3/-5--x--5--5--5--x--5--|
--3/-5--x--5--5--5--x--5--|--5--5--x--3----3----3--|--3/-5--x--5--5--5--x--5--|
--1/-3--x--3--3--3--x--3--|--3--3--x--1----1----1--|--1/-3--x--3--3--3--x--3--|
--------------------------|------------------------|--------------------------|


                                                                             
-----------------------|--5--5--x--5--5-----x-----|-------------------------|
--5----x--5------x--5--|--6--6--x--6--6--5--x--3--|--3--3--x--3----3--x--5--|
--5----x--5------x--5--|--7--7--x--7--7--5--x--3--|--3--3--x--3----3--x--5--|
--5----x--5------x--5--|--7--7--x--7--7--5--x--3--|--3--3--x--3----3--x--5--|
--3----x--3------x--3--|--5--5--x--5--5--3--x--1--|--1--1--x--1----1--x--3--|
-----------------------|--------------------------|-------------------------|


                                                       
--------------------------|---------------------------|
--5--5--x--5--x--5--x--5--|--5--5-5-x--5--5--5--x--x--|
--5--5--x--5--x--5--x--5--|--5--5-5-x--5--5--5--x--x--|
--5--5--x--5--x--5--x--5--|--5--5-5-x--5--5--5--x--x--|
--3--3--x--3--x--3--x--3--|--3--3-3-x--3--3--3--x--x--|
--------------------------|---------------------------|


                                                                                
--5--5-5-x--5--5-----x-----|--------------------------|------------------------|
--6--6-6-x--6--6--5--x--3--|--3--3-3-x--3--3----x--5--|--5----x--5----5--x--5--|
--7--7-7-x--7--7--5--x--3--|--3--3-3-x--3--3----x--5--|--5----x--5----5--x--5--|
--7--7-7-x--7--7--5--x--3--|--3--3-3-x--3--3----x--5--|--5----x--5----5--x--5--|
--5--5-5-x--5--5--3--x--1--|--1--1-1-x--1--1----x--3--|--3----x--3----3--x--3--|
---------------------------|--------------------------|------------------------|


                                                                            
-------------------------|--5-------5----5--------|---------------------5--|
--5--5--x--5----5--x-----|--6----x--6----6--x--5--|----5--x--3--3----x--5--|
--5--5--x--5----5--x-----|--7----x--7----7--x--5--|----5--x--3--3----x--6--|
--5--5--x--5----5--x-----|--7----x--7----7--x--5--|----5--x--3--3----x--7--|
--3--3--x--3----3--x--5--|--5----x--5----5--x--3--|----3--x--1--1----x--7--|
-------------------------|------------------------|---------------------5--|


                                                                               
--5--5--x--5----5--x--5--|--5-----------------------|--5--5--x--5----5--x-----|
--5--5--x--5----5--x--5--|--5--5-5-5--5----5--5--5--|--6--6--x--6----6--x--5--|
--6--6--x--6----6--x--6--|--6--0-0-0--0----0--0--0--|--7--7--x--7----7--x--5--|
--7--7--x--7----7--x--7--|--7--7-7-7--7----7--7--7--|--7--7--x--7----7--x--5--|
--7--7--x--7----7--x--7--|--7--7-7-7--7----7--7--7--|--5--5--x--5----5--x--3--|
--5--5--x--5----5--x--5--|--5-----------------------|-------------------------|


                                                    
---------------------5--|--5--5--x--5--5--5--x--5--|
----5--x--3--3----x--5--|--5--5--x--5--5--5--x--5--|
----5--x--3--3----x--6--|--6--6--x--6--6--6--x--6--|
----5--x--3--3----x--7--|--7--7--x--7--7--7--x--7--|
----3--x--1--1----x--7--|--7--7--x--7--7--7--x--7--|
---------------------5--|--5--5--x--5--5--5--x--5--|


                                                          
--5--5--x--5----5--x--------|----------------------------|
--5--5--x--5----5--x--10-10-|--10----x--10----10--x--10--|
--6--6--x--6----6--x--10-10-|--10----x--10----10--x--10--|
--7--7--x--7----7--x--10-10-|--10----x--10----10--x--10--|
--7--7--x--7----7--x--8--8--|--8-----x--8-----8---x--8---|
--5--5--x--5----5--x--------|----------------------------|


                                                                  
------------------------------8---|--8---8---x--8-----8---x--8---|
--10--10-10-x--10--10--10--x--8---|--8---8---x--8-----8---x--8---|
--10--10-10-x--10--10--10--x--9---|--9---9---x--9-----9---x--9---|
--10--10-10-x--10--10--10--x--10--|--10--10--x--10----10--x--10--|
--8---8--8--x--8---8---8---x--10--|--10--10--x--10----10--x--10--|
------------------------------8---|--8---8---x--8-----8---x--8---|


                                                          
--8---8--8--x--8-----8---x--6--|--6----x--6--6--6--x--6--|
--8---8--8--x--8-----8---x--6--|--6----x--6--6--6--x--6--|
--9---9--9--x--9-----9---x--7--|--7----x--7--7--7--x--7--|
--10--10-10-x--10----10--x--8--|--8----x--8--8--8--x--8--|
--10--10-10-x--10----10--x--8--|--8----x--8--8--8--x--8--|
--8---8--8--x--8-----8---x--6--|--6----x--6--6--6--x--6--|


                                                                               
--6--6--x--6--6--6--x--x--|--5--5-5-x--5--5--5--x--5--|--5----x---------------|
--6--6--x--6--6--6--x--x--|--6--6-6-x--6--6--6--x--6--|--6----x--3----3----3--|
--7--7--x--7--7--7--x--x--|--7--7-7-x--7--7--7--x--7--|--7----x--3----3----3--|
--8--8--x--8--8--8--x--x--|--7--7-7-x--7--7--7--x--7--|--7----x--3----3----3--|
--8--8--x--8--8--8--x--x--|--5--5-5-x--5--5--5--x--5--|--5----x--1----1----1--|
--6--6--x--6--6--6--x--x--|---------------------------|-----------------------|


                                                                               
--------------------------|------------------------|--------------------------|
--3/-5--x--5--5--5--x--5--|--5--5--x--3----3----3--|--3/-5--x--5--5--5--x--5--|
--3/-5--x--5--5--5--x--5--|--5--5--x--3----3----3--|--3/-5--x--5--5--5--x--5--|
--3/-5--x--5--5--5--x--5--|--5--5--x--3----3----3--|--3/-5--x--5--5--5--x--5--|
--1/-3--x--3--3--3--x--3--|--3--3--x--1----1----1--|--1/-3--x--3--3--3--x--3--|
--------------------------|------------------------|--------------------------|


                                                                             
-----------------------|--5--5--x--5--5-----x-----|-------------------------|
--5----x--5------x--5--|--6--6--x--6--6--5--x--3--|--3--3--x--3----3--x--5--|
--5----x--5------x--5--|--7--7--x--7--7--5--x--3--|--3--3--x--3----3--x--5--|
--5----x--5------x--5--|--7--7--x--7--7--5--x--3--|--3--3--x--3----3--x--5--|
--3----x--3------x--3--|--5--5--x--5--5--3--x--1--|--1--1--x--1----1--x--3--|
-----------------------|--------------------------|-------------------------|


                                                       
--------------------------|---------------------------|
--5--5--x--5--x--5--x--5--|--5--5-5-x--5--5--5--x--x--|
--5--5--x--5--x--5--x--5--|--5--5-5-x--5--5--5--x--x--|
--5--5--x--5--x--5--x--5--|--5--5-5-x--5--5--5--x--x--|
--3--3--x--3--x--3--x--3--|--3--3-3-x--3--3--3--x--x--|
--------------------------|---------------------------|


                                                                                
--5--5-5-x--5--5-----x-----|--------------------------|------------------------|
--6--6-6-x--6--6--5--x--3--|--3--3-3-x--3--3----x--5--|--5----x--5----5--x--5--|
--7--7-7-x--7--7--5--x--3--|--3--3-3-x--3--3----x--5--|--5----x--5----5--x--5--|
--7--7-7-x--7--7--5--x--3--|--3--3-3-x--3--3----x--5--|--5----x--5----5--x--5--|
--5--5-5-x--5--5--3--x--1--|--1--1-1-x--1--1----x--3--|--3----x--3----3--x--3--|
---------------------------|--------------------------|------------------------|


                                                     
-------------------------|--5--5--x--5--5-----x-----|
--5--5--x--5----5--x-----|--6--6--x--6--6--5--x--3--|
--5--5--x--5----5--x-----|--7--7--x--7--7--5--x--3--|
--5--5--x--5----5--x-----|--7--7--x--7--7--5--x--3--|
--3--3--x--3----3--x--5--|--5--5--x--5--5--3--x--1--|
-------------------------|--------------------------|


                                                                                
---------------------------|------------------------|--------------------------|
--3--3-3-x--3--3--3--x--5--|--5--5--x--5------x--5--|--5--5-5-x--5----5--x--x--|
--3--3-3-x--3--3--3--x--5--|--5--5--x--5------x--5--|--5--5-5-x--5----5--x--x--|
--3--3-3-x--3--3--3--x--5--|--5--5--x--5------x--5--|--5--5-5-x--5----5--x--x--|
--1--1-1-x--1--1--1--x--3--|--3--3--x--3------x--3--|--3--3-3-x--3----3--x--x--|
---------------------------|------------------------|--------------------------|


                                                                                
--5--5--x--5--5-----x-----|---------------------------|------------------------|
--6--6--x--6--6--5--x--3--|--3--3-3-x--3--3--3--x--5--|--5--5--x--5------x--5--|
--7--7--x--7--7--5--x--3--|--3--3-3-x--3--3--3--x--5--|--5--5--x--5------x--5--|
--7--7--x--7--7--5--x--3--|--3--3-3-x--3--3--3--x--5--|--5--5--x--5------x--5--|
--5--5--x--5--5--3--x--1--|--1--1-1-x--1--1--1--x--3--|--3--3--x--3------x--3--|
--------------------------|---------------------------|------------------------|


                                                      
--------------------------|--5--5--x--5--5-----x-----|
--5--5-5-x--5----5--x--x--|--6--6--x--6--6--5--x--3--|
--5--5-5-x--5----5--x--x--|--7--7--x--7--7--5--x--3--|
--5--5-5-x--5----5--x--x--|--7--7--x--7--7--5--x--3--|
--3--3-3-x--3----3--x--x--|--5--5--x--5--5--3--x--1--|
--------------------------|--------------------------|


                                                                                
---------------------------|------------------------|--------------------------|
--3--3-3-x--3--3--3--x--5--|--5--5--x--5------x--5--|--5--5-5-x--5----5--x--x--|
--3--3-3-x--3--3--3--x--5--|--5--5--x--5------x--5--|--5--5-5-x--5----5--x--x--|
--3--3-3-x--3--3--3--x--5--|--5--5--x--5------x--5--|--5--5-5-x--5----5--x--x--|
--1--1-1-x--1--1--1--x--3--|--3--3--x--3------x--3--|--3--3-3-x--3----3--x--x--|
---------------------------|------------------------|--------------------------|


                                                                                
--5--5--x--5--5-----x-----|---------------------------|------------------------|
--6--6--x--6--6--5--x--3--|--3--3-3-x--3--3--3--x--5--|--5--5--x--5------x--5--|
--7--7--x--7--7--5--x--3--|--3--3-3-x--3--3--3--x--5--|--5--5--x--5------x--5--|
--7--7--x--7--7--5--x--3--|--3--3-3-x--3--3--3--x--5--|--5--5--x--5------x--5--|
--5--5--x--5--5--3--x--1--|--1--1-1-x--1--1--1--x--3--|--3--3--x--3------x--3--|
--------------------------|---------------------------|------------------------|


                                                      
--------------------------|--5--5--x--5--5-----x-----|
--5--5-5-x--5----5--x--x--|--6--6--x--6--6--5--x--3--|
--5--5-5-x--5----5--x--x--|--7--7--x--7--7--5--x--3--|
--5--5-5-x--5----5--x--x--|--7--7--x--7--7--5--x--3--|
--3--3-3-x--3----3--x--x--|--5--5--x--5--5--3--x--1--|
--------------------------|--------------------------|


                                                                                
---------------------------|------------------------|--------------------------|
--3--3-3-x--3--3--3--x--5--|--5--5--x--5------x--5--|--5--5-5-x--5----5--x--x--|
--3--3-3-x--3--3--3--x--5--|--5--5--x--5------x--5--|--5--5-5-x--5----5--x--x--|
--3--3-3-x--3--3--3--x--5--|--5--5--x--5------x--5--|--5--5-5-x--5----5--x--x--|
--1--1-1-x--1--1--1--x--3--|--3--3--x--3------x--3--|--3--3-3-x--3----3--x--x--|
---------------------------|------------------------|--------------------------|


                                                                                
--5--5--x--5--5-----x-----|---------------------------|------------------------|
--6--6--x--6--6--5--x--3--|--3--3-3-x--3--3--3--x--5--|--5--5--x--5------x--5--|
--7--7--x--7--7--5--x--3--|--3--3-3-x--3--3--3--x--5--|--5--5--x--5------x--5--|
--7--7--x--7--7--5--x--3--|--3--3-3-x--3--3--3--x--5--|--5--5--x--5------x--5--|
--5--5--x--5--5--3--x--1--|--1--1-1-x--1--1--1--x--3--|--3--3--x--3------x--3--|
--------------------------|---------------------------|------------------------|


                                                      
--------------------------|--5--5--x--5--5-----x-----|
--5--5-5-x--5----5--x--x--|--6--6--x--6--6--5--x--3--|
--5--5-5-x--5----5--x--x--|--7--7--x--7--7--5--x--3--|
--5--5-5-x--5----5--x--x--|--7--7--x--7--7--5--x--3--|
--3--3-3-x--3----3--x--x--|--5--5--x--5--5--3--x--1--|
--------------------------|--------------------------|


                                                                                
---------------------------|------------------------|--------------------------|
--3--3-3-x--3--3--3--x--5--|--5--5--x--5------x--5--|--5--5-5-x--5----5--x--x--|
--3--3-3-x--3--3--3--x--5--|--5--5--x--5------x--5--|--5--5-5-x--5----5--x--x--|
--3--3-3-x--3--3--3--x--5--|--5--5--x--5------x--5--|--5--5-5-x--5----5--x--x--|
--1--1-1-x--1--1--1--x--3--|--3--3--x--3------x--3--|--3--3-3-x--3----3--x--x--|
---------------------------|------------------------|--------------------------|


        
------||
------||
------||
------||
------||
------||
            
Submit corrections

↑ Back to top | Dire Straits Tabs for Sultans Of Swing. Lyrics for acoustic guitar and electric guitar. Tablatures and chords are parodies/interpretations of the original songs. You may use it for private study, scholarship, research or language learning purposes only