» » »

Money For Nothing Bass tabs (ver.3)

Artists:  A B C D E F G H I J K L M N O P Q R S T U V W X Y Z # 

Money For Nothing Bass tabs (ver.3)

Dire Straits
Rating:
0/5 (0 votes)

Hard to play? Try these video lessons and learn fast.
                Instrument:     Electric Bass
Tuning:         Standard (EADG)

Legend:
X               Ghost Note
=               Extended Note
/               Slide Down
\               Slide Up
h               Hammer-On


 Verse
|-------------------------------------------------------------------------------|
|-------------------------------------------------------------------------------|
|-------------------3-1-----------------1==-1-3==-3-5-------------------5-3-1==-|
|-3==-X-3=--1-3==-3-----0-1-3==-X-3==-3---------------3==-X-3==-1-3==-3---------|

 ___________________________ ___________________________
| Verse Fill                | Pre-Chorus Fill
|---------------------------|---------------------------|
|-----------------/5-3------|---------------------------|
|----------------------5\==-|-------------------3---3---|
|-3==-X-3==-3-1==-----------|-3==-X-3==-3-1==-1---1---1-|


 Chorus A
|-------------------------------------------------------|
|-------5---5-8---------------------5-------3==-1-------|
|-6==-6---6-----------5---5-8-6==-6---6-5-3-------3-----|
|---------------6==-6---6---------------------------1==-|
 "We got to install microwave ovens, Custom kitchen deliveries"

 Chorus B
|-------------------------------------------------------------------|
|-------------------------------------------------------------------|
|-------------------------1---3==-3-------3-5==-5-------5-7==-X-7==-|
|-X-3==-X-3==-1-3==-3-1-3---3-------3-1-3---------5-3-5-------------|
 "We got to move these refrigerators, We got to move these color T.V.s"

 _______________________ _______________________
| Chorus B Fill 1       | Chorus B Fill 2
|-----------------------|-----------------------|
|-----------------------|-----------------------|
|-5-5-7==-7-(7-7)-5-3==-|-5h6h7==-7-(7-7)-5-3==-|
|-----------------------|-----------------------|
            
Hard to play? Try these video lessons and learn fast. | Correct




comments powered by Disqus
↑ Back to top | Tablatures and chords are parodies/interpretations of the original songs. You may use it for private study, scholarship, research or language learning purposes only