» » »

Dire Straits, Money For Nothing Main Tabs (ver.1)

Artists:  A B C D E F G H I J K L M N O P Q R S T U V W X Y Z # 

Money For Nothing Main Tabs (ver.1)

Dire Straits Tabs
 Rating:
4/5 (4 votes)
Money For Nothing Main lessons Tabs too difficult? Try these video lessons and learn fast
1
                (Riff)
Dire Straits - Money For Nothing (Main Riff)





* = That one previous chord is upstroke 

E---------------------------------------------|
B---3--3---3--3-*--6~------3---3-3-*-3-3-*----|
G---0--0---5--0----5~---5------0-0---0-0------|
D---5--5---5--5----------------5-5---5-5------|
A---------------------------------------------|
E---------------------------------------------|

E---------------------------------------------|
B---3--3-3-*---5--------3---------------------|
G---0--5-0----------3---3----5------5---------|
D---5--5-5---3------3--------5---5------------|
A---------------------------------------------|
E---------------------------------------------|

E------------------------------3--3--3--3~----|
B-----3---3--3-*--6~-------3---3-----3--------|
G-----0---5--0----5~---5----------------------|
D-----5---5--5--------------------------------|
A---------------------------------------------|
E---------------------------------------------|

E---------------------------------------------|
B---3--3-3-*----------------------------------|
G---0--5-0----------------3-------------------|
D---5--5-5---5--3------3--3----5~~------------|
A----------------------3-------5~~------------|
E---------------------------------------------|
            
Submit corrections

comments powered by Disqus
↑ Back to top | Dire Straits Tabs for Money For Nothing Main. Lyrics for acoustic guitar and electric guitar. 1 Tablatures and chords are parodies/interpretations of the original songs. You may use it for private study, scholarship, research or language learning purposes only