>
 >
 >
Caught In The Middle

Caught In The Middle Guitar Tabs

Dio - Caught In The Middle chords, tabs, tablatures, lyrics

Guitar lessons | Add/correct | Request | Top 50 tabs Artists:  A B C D E F G H I J K L M N O P Q R S T U V W X Y Z 0-9

Caught In The Middle Guitar Tabs – Dio

CD, Sheet music, Poster

Do you like Caught In The Middle? Share with your friends now
Bass TabsTabsTabs v2
Dio Ė Caught in the Middle

Firstly, check out my other tabs also, thanks!

You canít hate an opening riff like that! Vivian Campbell at his prime! Here ya go! & by 
way, I know it looks like I forgot to add in palm mutes but I didnít, thatís the way 

Tablature Legend:
/     - Slide up
\     - Slide down
///   - Slower slide
?(?)  - Bend (to whatever is in the brackets)
~     - vibrato
h     - hammer-on
p     - pull-off
PM|-| - Palm Mute

Intro:
e|---------------------------------------|-----------------------------------------|
B|---------------------------------------|-----------------------------------------|
G|---------------------------------------|-----------------------------------------|
D|-6---9--4---9--2----------------6--4---|-6---9--4---9--2----------------6--4-----|
A|-4---7--2---7--0----------------4--2---|-4---7--2---7--0----------------4--2-----|
E|-------------------0-2-5-4-2-0---------|-------------------0-2-5-4-2-0-----------|
PM                  |-----------|                           |----------------------|

Verse:
e|---------------------------------------------------------------|
B|---------------------------------------------------------------|
G|---------------------------------------------------------------|
D|-2-2---------------------------6-4-2---------------------------|
A|-0-0--0-0-0-0-0-0-0-0-0-0-0-0--4-2-0--0-0-0-0-0-0-0-0-0-0-0-0--|
E|---------------------------------------------------------------|

e|---------------------------------------|
B|---------------------------------------|
G|---------------------------------------|
D|-6-4-9---------------------------------|
A|-4-2-7--7-7-7-7-7-7-7-7-7-7-7-7-7-7-7--|
E|---------------------------------------|

e|---------------------------------------------------------------|
B|---------------------------------------------------------------|
G|---------------------------------------------------------------|
D|-2-2---------------------------6-4-2---------------------------|
A|-0-0--0-0-0-0-0-0-0-0-0-0-0-0--4-2-0--0-0-0-0-0-0-0-0-0-0-0-0--|
E|---------------------------------------------------------------|

e|--------------------------------------|
B|--------------------------------------|
G|--------------------------------------|
D|-4--6---------------------------------|
A|-2--4--4-4-4-4-4-4-4-4-4-4-4-4-4-4-4--|
E|--------------------------------------|

e|-----------------------------------------------------------------|
B|-----------------------------------------------------------------|
G|-----------------------------------------------------------------|
D|-6-4-2---------------------------6-4-2---------------------------|
A|-4-2-0--0-0-0-0-0-0-0-0-0-0-0-0--4-2-0--0-0-0-0-0-0-0-0-0-0-0-0--|
E|-----------------------------------------------------------------|

e|-------------------------------------|
B|-------------------------------------|
G|-------------------------------------|
D|-4-6------9-----7-----6-----4--------|
A|-2-4------7-----5-----4-----2--------|
E|------0-0---0-0---0-0---0-0---0-0----|
PM     |---| |---| |---| |---| |-------|

e|---------------------------------------------------------------|
B|---------------------------------------------------------------|
G|---------------------------------------------------------------|
D|-2-2---------------------------6-4-2---------------------------|
A|-0-0--0-0-0-0-0-0-0-0-0-0-0-0--4-2-0--0-0-0-0-0-0-0-0-0-0-0-0--|
E|---------------------------------------------------------------|

e|--------------------------------------|
B|--------------------------------------|
G|--------------------------------------|
D|-4--6---------------------------------|
A|-2--4--4-4-4-4-4-4-4-4-4-4-4-4-4-4-4--|
E|--------------------------------------|

Interlude:
e|-------------------------------------------------------------------|
B|--------------5-------------5-------------5-----------5-------5----|
G|------------4---4-2---1~--4---4-2-1-2~--4---4-2-1-2-4---4-1-4---4--|
D|--------4~----------4----------------------------------------------|
A|-19\---------------------------------------------------------------|
E|-------------------------------------------------------------------|

e|-----------------------------------------|
B|-----------------------------------------|
G|-----------------------------------------|
D|-6---9--4---9--2----------------6--4-----|
A|-4---7--2---7--0----------------4--2-----|
E|-------------------0-2-5-4-2-0-----------|
PM                  |----------------------|

Verse:
e|---------------------------------------------------------------|
B|---------------------------------------------------------------|
G|---------------------------------------------------------------|
D|-2-2---------------------------6-4-2---------------------------|
A|-0-0--0-0-0-0-0-0-0-0-0-0-0-0--4-2-0--0-0-0-0-0-0-0-0-0-0-0-0--|
E|---------------------------------------------------------------|

e|-------------------------------------|
B|-------------------------------------|
G|-------------------------------------|
D|-4-6------9-----7-----6-----4--------|
A|-2-4------7-----5-----4-----2--------|
E|------0-0---0-0---0-0---0-0---0-0----|
PM     |---| |---| |---| |---| |-------|

e|---------------------------------------------------------------|
B|---------------------------------------------------------------|
G|---------------------------------------------------------------|
D|-2-2---------------------------6-4-2---------------------------|
A|-0-0--0-0-0-0-0-0-0-0-0-0-0-0--4-2-0--0-0-0-0-0-0-0-0-0-0-0-0--|
E|---------------------------------------------------------------|

e|--------------------------------------|
B|--------------------------------------|
G|--------------------------------------|
D|-4--6---------------------------------|
A|-2--4--4-4-4-4-4-4-4-4-4-4-4-4-4-4-4--|
E|--------------------------------------|

Interlude:                                                 (x2)
e|------------------------------------------------------------|
B|-------5-------------5-------------5-----------5-------5----|
G|-----4---4-2---1~--4---4-2-1-2~--4---4-2-1-2-4---4-1-4---4--|
D|-4~----------4----------------------------------------------|
A|------------------------------------------------------------|
E|------------------------------------------------------------|

Chorus:
e|-----------------------------------------|
B|-----------------------------------------|
G|-----------------------------------------|
D|-6--9-\\\--4--9-\\\--2--9-\\\--4--9\\\---|
A|-4--7-\\\--2--7-\\\--0--7-\\\--2--7\\\---|
E|-----------------------------------------|

Solo:
e|-12~-11h12p11~--14~-12h14p12\11h12~--|
B|-------------------------------------|
G|-------------------------------------|
D|-------------------------------------|
A|-------------------------------------|
E|-------------------------------------|

e|-16-14p12h14p12----------------------------------------------------|
B|----------------16p14p12h14~-9h12p11p9-----------------------------|
G|---------------------------------------11-11(13)(11)p9-------------|
D|-------------------------------------------------------11-11t~~~---|
A|-------------------------------------------------------------------|
E|-------------------------------------------------------------------|

e|-12~-11h12p11~--14~-12h14p12\11h12~--|
B|-------------------------------------|
G|-------------------------------------|
D|-------------------------------------|
A|-------------------------------------|
E|-------------------------------------|

e|-16--14--12--16--14--17--17(19)~~~~~~------|
B|-------------------------------------------|
G|-------------------------------------------|
D|-------------------------------------------|
A|-------------------------------------------|
E|-------------------------------------------|

Verse:
e|------------------------------------------------------------------|
B|------------------------------------------------------------------|
G|------------------------------------------------------------------|
D|-2---------------------------6-4-2--2-----------------------------|
A|-0--0-0-0-0-0-0-0-0-0-0-0-0--4-2-0--0--0-0-0-0-0-0-0-0-0-0-0-0----|
E|------------------------------------------------------------------|
PM   |-----------------------|          |---------------------------|

e|-------------------------------------|
B|-------------------------------------|
G|-------------------------------------|
D|-6-4------9-----7-----6-----4--------|
A|-4-2------7-----5-----4-----2--------|
E|------0-0---0-0---0-0---0-0---0-0----|
PM     |---| |---| |---| |---| |-------|

e|-----------------------------------------------------------------------|
B|-----------------------------------------------------------------------|
G|-----------------------------------------------------------------------|
D|-2-2-2---------------------------6-4-2-2-2-----------------------------|
A|-0-0-0--0-0-0-0-0-0-0-0-0-0-0-0--4-2-0-0-0--0-0-0-0-0-0-0-0-0-0-0-0----|
E|-----------------------------------------------------------------------|
PM       |-----------------------|           |---------------------------|

e|-------------------------------------------------------------|
B|-------------------------------------------------------------|
G|-------------------------------------------------------------|
D|-4--6-----------4--6-----------4--6-----------4--6-----------|
A|-2--4--4-4-4-4--2--4--4-4-4-4--2--4--4-4-4-4--2--4--4-4-4-4--|
E|-------------------------------------------------------------|

Interlude:                                                 (x2)
e|------------------------------------------------------------|
B|-------5-------------5-------------5-----------5-------5----|
G|-----4---4-2---1~--4---4-2-1-2~--4---4-2-1-2-4---4-1-4---4--|
D|-4~----------4----------------------------------------------|
A|------------------------------------------------------------|
E|------------------------------------------------------------|

Chorus:                                 (x9)
e|-----------------------------------------|
B|-----------------------------------------|
G|-----------------------------------------|
D|-6--9-\\\--4--9-\\\--2--9-\\\--4--9\\\---|
A|-4--7-\\\--2--7-\\\--0--7-\\\--2--7\\\---|
E|-----------------------------------------|
Fade from the 6th bar.

Enjoy!





Comments


Popular Dio tabs & chords
Straight Through The Heart 3 Bass Tabs
Another Lie Tabs
Born On The Sun Tabs
Fever Dreams Tabs
Holy Diver (Intro Ver 2) Tabs
Holy Diver (Solo) Tabs
Holy Diver 3 Tabs
Lord Of The Last Day Tabs
Rock N Roll Children Tabs
Shivers Tabs


Song lyrics



↑ Back to top | Tablatures and chords are parodies/interpretations of the original songs. You may use it for private study, scholarship, research or language learning purposes only
© 2014 AZChords.com Contact us | Privacy policy | DMCA | Add/correct tabs | Request tabs | Top 50 tabs