» » »

Dio, Caught In The Middle Bass tabs (ver.1)

Artists:  A B C D E F G H I J K L M N O P Q R S T U V W X Y Z # 

Caught In The Middle Bass tabs (ver.1)

Dio Tabs
 Rating:
4/5 (4 votes)
Caught In The Middle lessons Tabs too difficult? Try these video lessons and learn fast
                DIO - Holy Diver

Bass tab by Andre Couto (aka "Andre The Wizard (murder in the rue morgue)")

18/05/99

note: "*"s are used to represent the same note X times (listen to the song).
% = repeat previous bar

G------------------------------------------------------------------------|-
D----------------------------------2------2------------------------------|-
A--0---------------4--2-2--4-4-\------2------0--------------4--2-2--0-0--|-
E-------2-4-5-4-2--------------------------------2-4-5-4-2---------------|-

G---------
D---------
A--0*-----
E---------

G---------------------------------------------------------------------------|-
D----------------------2----------------------------------------------------|-
A--4-2-0*------4-2----------5----4----2------0*------4-2-0*------2--4*------|-
E------------------0-0---00---00---00----2-4--------------------------------|-

G--------------
D-------------- back to above
A--4-2-0*------
E--------------

G------------------------------------------------------------------
D-------4---------6---------7------------------------2-------------
A--------------------------------0-0-0-0-0-2-2-2-4------2--as intro
E--2--2---2--4--4---4--5--5---5------------------------------------

   1:36
G------------------------------------------
D-------4---------6---------7----7---------
A------------------------------------------
E--2--2---2--4--4---4--5--5---5-----5-5-4--

G-------------------------------------------
D-------4---------6---------7---------------
A--------------------------------0*--222-44-
E--2--2---2--4--4---4--5--5---5-------------

G------------------------|---|-
D------------------------|---|-
A--4*---2*---0*---2*-----|-%-|-
E------------------------|---|-

   solo
G-------------------------------------------------|
D-------------------------------------------------|
A--------------------------------------------2----|
E--2*---4*---5*-----55-4-2*---4*---5*--5-4-5------|

   end (fade out)
G------------------------||
D------------------------||
A--4*---2*---0*---2*-----||
E------------------------||
            
Submit corrections

comments powered by Disqus
↑ Back to top | Dio Bass for Caught In The Middle. Lyrics for acoustic guitar and electric guitar. Tablatures and chords are parodies/interpretations of the original songs. You may use it for private study, scholarship, research or language learning purposes only