» » »

Someone Tabs (ver.1)

Artists:  A B C D E F G H I J K L M N O P Q R S T U V W X Y Z # 

Someone Tabs (ver.1)

Dht
Rating:
4/5 (2 votes)

Hard to play? Try these video lessons and learn fast.
                Someone by Dht

This is the closer version for the verses. Other one is all good except for the verses. 
might be capo on 1 but its up to you... Enjoy


Intro:
 Am                  C             G              D
|------------------------------------------------2------------------|
|-------1------------1-------------0-----------3---3----------------|
|-----2---2-------0----0---------0---0-------2-------2--------------|
|---2-------2---2--------2-----0-------0---0------------------------|
|-0-----------3-------------0---------------------------------------|
|-------------------------------------------------------------------|


 Am          C            D
|-------------------------2------------------------------------|
|------1-----------1------3------------------------------------|
|----2---2-------0---0----2------------------------------------|
|--2-------2---2-------2--0------------------------------------|
|0-----------3------------0------------------------------------|
|-------------------------X------------------------------------|

Am                       C                             G            D
You can't eat, you can't sleep, you can weep when you love someone
       Am                C                             G       E
Feels extreme when you dream, and you scream when you love someone
Am                   D7
If you feel that strong
F
Can you see that, one

[Chorus]
G
Let me be your...
C                    G
Someone to hold you tight
                            Dm
Someone to make you feel All right.

Everyday and night
F
I wish I was your someone
C                               G
Someone to hold you when you're weak
                          Am
Someone to make you feel complete
      Dm
Every day and night
   F
I wish I was your someone


Am                     C                     G                 D
Don't you know, I will go, if you show that I can break through
Am                      C                              G         E
Feels extreme when you dream, and you scream when you love someo  Am                     D7
If you feel that strong
    F
Can you see that you're the one

[Chorus]

Bridge:
Am                F
And I hold you tight
        F           G
You're still on my mind, I can't stand to live without you
Dm                 F
And I can't forget you
                         Dm          G
Wherever you are, you're still on my mind

Key Change:
D                    A
Someone to hold you tight
                             Em
Someone to make you feel All right.
 Bm
Everyday and night
G                  A
I wish I was your someone
D                               A
Someone to hold you when you're weak
                          Em
Someone to make you feel complete
      Bm
Every day and night
   G               A
I wish I was your someone
            
Hard to play? Try these video lessons and learn fast. | Correct




comments powered by Disqus
↑ Back to top | Tablatures and chords are parodies/interpretations of the original songs. You may use it for private study, scholarship, research or language learning purposes only