» » »

Someone Tabs (ver.2)

Artists:  A B C D E F G H I J K L M N O P Q R S T U V W X Y Z # 

Someone Tabs (ver.2)

Dht
Rating:
0/5 (0 votes)

Hard to play? Try these video lessons and learn fast.
                (Intro)
Someone By: DHT



Intro:
 Dm                F              Am           
|--------1---------------1--------------0-------------3-----------|
|------3---3-----------1---1----------1---1---------0---0---------|
|----2-------2-------2-------2------2-------2-----0-------0-------|
|--0-----------0---3--------------2-------------0-----------------|
|-----------------------------------------------------------------|
|-----------------------------------------------------------------|


 Dm                F             
|--------1---------------1-------------3------------------|
|------3---3-----------1---1-----------0------------------|
|----2-------2-------2-------2---------0------------------|
|--0-----------0---3-------------------0------------------|
|---------------------------------------------------------|
|---------------------------------------------------------|
            
Hard to play? Try these video lessons and learn fast. | Correct




comments powered by Disqus
↑ Back to top | Tablatures and chords are parodies/interpretations of the original songs. You may use it for private study, scholarship, research or language learning purposes only