» » »

Devin Townsend, Bad Devil Tabs (ver.2)

Artists:  A B C D E F G H I J K L M N O P Q R S T U V W X Y Z # 

Bad Devil Tabs (ver.2)

Devin Townsend Tabs
Rating:
5/5 (2 votes)
Bad Devil lessons Tabs too difficult? Try these video lessons and learn fast
                I could only find one tab on the interwebs and it was annoying me.

So I made this. I'm not quite sure about the legato runs and I've yet to figure 
out the last 8 seconds... 

I'll edit it when I've figured it out.

Suck it!


E||--------------------------------|-----------------------------||
C||--------------------------------|-----------------------------||
G||--------------------------------|---------------------------0-||
C||--------------------------------|---------------------------0-||
G||-x-0-3-0-5-0-3-0--0-3-0-5-0-3-0-|-0-3-0-5-0-3-0--0-6-5--0-3---||
C||-x-0-3-0-5-0-3-0--0-3-0-5-0-3-0-|-0-3-0-5-0-3-0--0-6-5--0-3---||

E||--------------------------------|-----------------------------||
C||--------------------------------|-----------------------------||
G||--------------------------------|-----------------------------||
C||--------------------------------|-----------------------------||
G||-x-0-3-0-5-0-3-0--0-3-0-5-0-3-0-|-0-3-0-5-0-3-0--0-3-0--0-3-0-||
C||-x-0-3-0-5-0-3-0--0-3-0-5-0-3-0-|-0-3-0-5-0-3-0--0-3-0--0-3-0-||

E||--------------------------------|-----------------------------||
C||--------------------------------|-----------------------------||
G||--------------------------------|---------------------------0-||
C||--------------------------------|---------------------------0-||
G||-x-0-3-0-5-0-3-0--0-3-0-5-0-3-0-|-0-3-0-5-0-3-0--0-6-5--0-3---||
C||-x-0-3-0-5-0-3-0--0-3-0-5-0-3-0-|-0-3-0-5-0-3-0--0-6-5--0-3---||

E||--------------------------------|-----------------------------||
C||--------------------------------|-----------------------------||
G||--------------------------------|-----------------------------||
C||--------------------------------|-----------------------------||
G||-x-0-3-0-5-0-3-0--0-3-0-5-0-3-0-|-0-3-0-5-0-3-0--0-3-0--0-3-0-||
C||-x-0-3-0-5-0-3-0--0-3-0-5-0-3-0-|-0-3-0-5-0-3-0--0-3-0--0-3-0-||



E||--------------------------------|-----------------------------||
C||--------------------------------|-----------------------------||
G||--------------------------------|-----------------------------||
C||--------------------------------|-----------------------------||
G||-0------------------------------|-----------------------------||
C||-0------------------------------|-----------------------------||x4



E||--------------------------------|-----------------------------||
C||--------------------------------|-----------------------------||
G||--------------------------------|---------------------------0-||
C||--------------------------------|---------------------------0-||
G||-x-0-3-0-5-0-3-0--0-3-0-5-0-3-0-|-0-3-0-5-0-3-0--0-6-5--0-3---||
C||-x-0-3-0-5-0-3-0--0-3-0-5-0-3-0-|-0-3-0-5-0-3-0--0-6-5--0-3---||

E||--------------------------------|-----------------------------||
C||--------------------------------|-----------------------------||
G||--------------------------------|-----------------------------||
C||--------------------------------|-----------------------------||
G||-x-0-3-0-5-0-3-0--0-3-0-5-0-3-0-|-0-3-0-5-0-3-0--0-3-0--0-3-0-||
C||-x-0-3-0-5-0-3-0--0-3-0-5-0-3-0-|-0-3-0-5-0-3-0--0-3-0--0-3-0-||


E||--------------------------------|-----------------------------||
C||--------------------------------|-----------------------------||
G||--------------------------------|-----------------------------||
C||--------------------------------|-----------------------------||
G||-0------------------------------|-----------------------------||
C||-0------------------------------|-----------------------------||x4



E||--------------------------------|-----------------------------||
C||--------------------------------|-----------------------------||
G||--------------------------------|---------------------------0-||
C||--------------------------------|---------------------------0-||
G||-x-0-3-0-5-0-3-0--0-3-0-5-0-3-0-|-0-3-0-5-0-3-0--0-6-5--0-3---||
C||-x-0-3-0-5-0-3-0--0-3-0-5-0-3-0-|-0-3-0-5-0-3-0--0-6-5--0-3---||

E||--------------------------------|-----------------------------||
C||--------------------------------|-----------------------------||
G||--------------------------------|-----------------------------||
C||--------------------------------|-----------------------------||
G||-x-0-3-0-5-0-3-0--0-3-0-5-0-3-0-|-0-3-0-5-0-3-0--0-3-0--0-3-0-||
C||-x-0-3-0-5-0-3-0--0-3-0-5-0-3-0-|-0-3-0-5-0-3-0--0-3-0--0-3-0-||




E||-----------|-----------------------------|-----------|-----------------------------||
C||-----------|-----------------------------|-----------|-----------------------------||
G||-----------|-----------------------------|-----------|-----------------------------||
C||-----------|-----------------------------|-----------|-----------------------------||
G||-3-3-3-2-1-|-x-0-3-0-5-0-3-0--0-3-0--0-3-|-3-3-3-2-1-|-x-0-3-0-5-0-3-0--0-3-0--0-3-||
C||-3-3-3-2-1-|-x-0-3-0-5-0-3-0--0-3-0--0-3-|-3-3-3-2-1-|-x-0-3-0-5-0-3-0--0-3-0--0-3-||

E||-----------|-----------------------------|-----------|-----------------------------||
C||-----------|-----------------------------|-----------|-----------------------------||
G||-----------|-----------------------------|-----------|-3-5-3-0---------------------||
C||-----------|-----------------------------|-----------|---------5-3-0---------------||
G||-3-3-3-2-1-|-x-0-3-0-5-0-3-0--0-3-0--0-3-|-3-3-3-2-1-|---------------5-3-0---------||
C||-3-3-3-2-1-|-x-0-3-0-5-0-3-0--0-3-0--0-3-|-3-3-3-2-1-|---------------------5-3-2-0-||




E||-------------------------|-------------------------||
C||-------------------------|-------------------------||
G||---------------------5-5-|---------------------5-5-||
C||-------------------------|-------------------------||
G||-0-0-3-3-0-0-3-3-0-0-5-5-|-0-0-3-3-0-0-3-3-0-0-5-5-||
C||-0-0-3-3-0-0-3-3-0-0-----|-0-0-3-3-0-0-3-3-0-0-----||

E||-------------------------------|-----------------|-----------------||
C||-------------------------------|-----------------|-----------------||
G||-------------------------------|-----------------|-----------------||
C||-------------------------------|-----------------|-----------------||
G||-0-0-3-3-0-0-3-3-0-0-3-3-0-0-3-|-7-7-7-5-5-3-3-2-|--0--3--5--8--7--||
C||-0-0-3-3-0-0-3-3-0-0-3-3-0-0-3-|-7-7-7-5-5-3-3-2-|--0--3--5--8--7--||

E||-----------------|----------------------------||
C||-----------------|----------------------------||
G||-----------------|----------------------------||
C||-----------------|----------------------------||
G||-7-7-5-5-3-3-2-0-|-0-3-0-5-0-3-0--0-5-6--3-0--||
C||-7-7-5-5-3-3-2-0-|-0-3-0-5-0-3-0--0-5-6--3-0--||

E||----------------------------|----------------------------|-----------------------||
C||----------------------------|----------------------------|-----------------------||
G||----------------------------|----------------------------|-----------------------||
C||----------------------------|----------------------------|-----------------------||
G||-0-3-0-5-0-3-0--0-5-6--3-0--|-0-3-0-5-0-3-0--0-5-6--3-0--|-6-3-0--x-6-3-0--0-3-0-||
C||-0-3-0-5-0-3-0--0-5-6--3-0--|-0-3-0-5-0-3-0--0-5-6--3-0--|-6-3-0--x-6-3-0--0-3-0-||



Trumpet and bassy funk goes in here....



E||----------------------|--------------------|--------------------|--------------------|
C||----------------------|--------------------|--------------------|--------------------|
G||-------------------2~-|--------------------|--------------------|--------------------|
C||-------------0-3-5----|--------------------|--------------------|--------------------|
G||-------0-3-5----------|-0--x-3--x-7--x-3-2-|-0--x-3--x-7--x-3-2-|-0--x-3--x-7--x-3-2-|
C||-0-3-5----------------|-0--x-3--x-7--x-3-2-|-0--x-3--x-7--x-3-2-|-0--x-3--x-7--x-3-2-|

----------||
----------||
--------2~||
----------||
-0--x-3---||
-0--x-3---||

E||--------------------|--------------------|--------------------|------------------------------||
C||--------------------|--------------------|--------------------|------------------------------||
G||--------------------|--------------------|--------------------|------------------------------||
C||--------------------|--------------------|--------------------|------------------------------||
G||-0--x-3--x-7--x-3-2-|-0--x-3--x-7--x-3-2-|-0--x-3--x-7--x-3-2-|-0-12-12-12-12-12-12-12-12-12-||
C||-0--x-3--x-7--x-3-2-|-0--x-3--x-7--x-3-2-|-0--x-3--x-7--x-3-2-|-0-12-12-12-12-12-12-12-12-12-||



E||--------------|------------------|--------------|-----------------||
C||--------------|------------------|--------------|-----------------||
G||--------------|------------------|--------------|-----------------||
C||--------------|------------------|--------------|-----------------||
G||--0--3--5--8--|--0--3--5--13\12--|--0--3--5--8--|-7-7-7-5-5-3-3-2-||
C||--0--3--5--8--|--0--3--5--13\12--|--0--3--5--8--|-7-7-7-5-5-3-3-2-||



E||----------------------------|----------------------------||
C||----------------------------|----------------------------||
G||----------------------------|----------------------------||
C||----------------------------|----------------------------||
G||-0-3-0-5-0-3-0--0-5-6--3-0--|-0-3-0-5-0-3-0--0-5-6--3-0--||
C||-0-3-0-5-0-3-0--0-5-6--3-0--|-0-3-0-5-0-3-0--0-5-6--3-0--||

E||----------------------------|-----------------------||
C||----------------------------|-----------------------||
G||----------------------------|-----------------------||
C||----------------------------|-----------------------||
G||-0-3-0-5-0-3-0--0-5-6--3-0--|-6-3-0--x-6-3-0--0-3-0-||
C||-0-3-0-5-0-3-0--0-5-6--3-0--|-6-3-0--x-6-3-0--0-3-0-||



E||-----------|-----------------------------|-----------|-----------------------------||
C||-----------|-----------------------------|-----------|-----------------------------||
G||-----------|-----------------------------|-----------|-----------------------------||
C||-----------|-----------------------------|-----------|-----------------------------||
G||-3-3-3-2-1-|-x-0-3-0-5-0-3-0--0-3-0--0-3-|-3-3-3-2-1-|-x-0-3-0-5-0-3-0--0-3-0--0-3-||
C||-3-3-3-2-1-|-x-0-3-0-5-0-3-0--0-3-0--0-3-|-3-3-3-2-1-|-x-0-3-0-5-0-3-0--0-3-0--0-3-||

E||-----------|-----------------------------|-----------|-----------------------------||
C||-----------|-----------------------------|-----------|-----------------------------||
G||-----------|-----------------------------|-----------|-3-5-3-0---------------------||
C||-----------|-----------------------------|-----------|---------5-3-0-------------3-||
G||-3-3-3-2-1-|-x-0-3-0-5-0-3-0--0-3-0--0-3-|-3-3-3-2-1-|---------------5-3-0---------||
C||-3-3-3-2-1-|-x-0-3-0-5-0-3-0--0-3-0--0-3-|-3-3-3-2-1-|---------------------5-3-2---||

E||-------------------------|-------------------------||
C||-------------------------|-------------------------||
G||---------------------5-5-|---------------------5-5-||
C||-------------------------|-------------------------||
G||-0-0-3-3-0-0-3-3-0-0-5-5-|-0-0-3-3-0-0-3-3-0-0-5-5-||
C||-0-0-3-3-0-0-3-3-0-0-----|-0-0-3-3-0-0-3-3-0-0-----||

E||-------------------------------|-----------------||
C||-------------------------------|-----------------||
G||-------------------------------|-----------------||
C||-------------------------------|-----------------||
G||-0-0-3-3-0-0-3-3-0-0-3-3-0-0-3-|-7-7-7-5-5-3-3-2-||
C||-0-0-3-3-0-0-3-3-0-0-3-3-0-0-3-|-7-7-7-5-5-3-3-2-||



E||--------------|------------------|--------------|-----------------||
C||--------------|------------------|--------------|-----------------||
G||--------------|------------------|--------------|-----------------||
C||--------------|------------------|--------------|-----------------||
G||--0--3--5--8--|--0--3--5--13\12--|--0--3--5--8--|-7-7-7-5-5-3-3-2-||
C||--0--3--5--8--|--0--3--5--13\12--|--0--3--5--8--|-7-7-7-5-5-3-3-2-||


E||----------------------------|----------------------------||
C||----------------------------|----------------------------||
G||----------------------------|----------------------------||
C||----------------------------|----------------------------||
G||-0-3-0-5-0-3-0--0-5-6--3-0--|-0-3-0-5-0-3-0--0-5-6--3-0--||
C||-0-3-0-5-0-3-0--0-5-6--3-0--|-0-3-0-5-0-3-0--0-5-6--3-0--||

E||----------------------------|-----------------------||
C||----------------------------|-----------------------||
G||----------------------------|-----------------------||
C||----------------------------|-----------------------||
G||-0-3-0-5-0-3-0--0-5-6--3-0--|-6-3-0--x-6-3-0--0-3-0-||
C||-0-3-0-5-0-3-0--0-5-6--3-0--|-6-3-0--x-6-3-0--0-3-0-||

E||----------------------------|----------------------------||
C||----------------------------|----------------------------||
G||----------------------------|----------------------------||
C||----------------------------|----------------------------||
G||-0-3-0-5-0-3-0--0-5-6--3-0--|-0-3-0-5-0-3-0--0-5-6--3-0--||
C||-0-3-0-5-0-3-0--0-5-6--3-0--|-0-3-0-5-0-3-0--0-5-6--3-0--||



Last 8 seconds stil to go, if you've got this far I'm sure you'll figure it out...

\m/
            
Submit corrections

comments powered by Disqus
↑ Back to top | Devin Townsend Tabs for Bad Devil. Lyrics for acoustic guitar and electric guitar. Tablatures and chords are parodies/interpretations of the original songs. You may use it for private study, scholarship, research or language learning purposes only