>
 >
Bad Devil

Bad Devil Guitar Tabs

Devin Townsend - Bad Devil chords, tabs, tablatures, lyrics

Guitar lessons | Add/correct | Request | Top 50 tabs Artists:  A B C D E F G H I J K L M N O P Q R S T U V W X Y Z 0-9

Bad Devil Guitar Tabs – Devin Townsend

CD, Sheet music, Poster

Do you like Bad Devil? Share with your friends now
TabsTabs v2
Tuning (low to high): CGCGBE

Riff A                  Riff B         Riff C               Verse
---------------------|--------------|--------------------|-----|--------|
---------------------|--------------|--------------------|-----|--------|
---------------------|-----------0--|--------------------|-----|--------|
---------------------|-----------0--|--------------------|-----|--------|
0--3--0--5--0--3--0--|--6--5--3-----|--0--3--0--0--3--0--|--0--|--------|
0--3--0--5--0--3--0--|--6--5--3-----|--0--3--0--0--3--0--|--0--|--------|


Riff E         Riff F         Riff G
------------|--------------|--------------------------------|-----------|
------------|--------------|--------------------------------|-----------|
------------|--------------|--------------------------------|-----------|
------------|--------------|--------------------------------|-----------|
6--5--3--0--|--3--2--1--0--|--0--3--0--5--0--3--0--0--3--0--|-----------|
6--5--3--0--|--3--2--1--0--|--0--3--0--5--0--3--0--0--3--0--|-----------|


Riff H         Cool run 1
------------|--------------------------------------------|--------------|
------------|--------------------------------------------|--------------|
------------|--3--5--3--0--------------------------------|--------------|
------------|--------------5--3--0-----------------------|--------------|
3--2--6--6--|-----------------------5--3--0--------------|--------------|
3--2--6--6--|--------------------------------5--3--2--0--|--------------|


Riff I
------------------------------------|-----------------------------------|
------------------------------------|-----------------------------------|
------------------------------------|-----------------------------------|
------------------------------7--7--|-----------------------------------|
0--0--3--3--0--0--3--3--0--0--5--5--|-----------------------------------|
0--0--3--3--0--0--3--3--0--0--------|-----------------------------------|


Riff J
---------------------------------------------|--------------------------|
---------------------------------------------|--------------------------|
---------------------------------------------|--------------------------|
---------------------------------------------|--------------------------|
0--0--3--3--0--0--3--3--0--0--3--3--0--0--3--|--------------------------|
0--0--3--3--0--0--3--3--0--0--3--3--0--0--3--|--------------------------|


Riff K                     Riff L
------------------------|-----------------|-----------------------------|
------------------------|-----------------|-----------------------------|
------------------------|-----------------|-----------------------------|
------------------------|-----------------|-----------------------------|
7--7--7--5--5--3--3--2--|--0--3--5--8--7--|-----------------------------|
7--7--7--5--5--3--3--2--|--0--3--5--8--7--|-----------------------------|


Riff M                     Bad Devil
------------------------|--------------------------------------|--------|
------------------------|--------------------------------------|--------|
------------------------|--------------------------------------|--------|
------------------------|--------------------------------------|--------|
7--7--5--5--3--3--2--0--|--0--3--0--5--0--3--0--0--5--6--3--0--|--------|
7--7--5--5--3--3--2--0--|--0--3--0--5--0--3--0--0--5--6--3--0--|--------|


Riff N                           Bass riff         Riff O
------------------------------|-----------------|-----------------|-----|
------------------------------|-----------------|-----------------|-----|
------------------------------|-----------------|-----------------|-----|
------------------------------|-----------------|-----------------|-----|
6--3--0--6--3--0--3--0--3--0--|-----------------|--0--3--7--3--2--|-----|
6--3--0--6--3--0--3--0--3--0--|--0--3--7--3--2--|--0--3--7--3--2--|-----|


Cool run 2
------------------------------|-----------------------------------------|
------------------------------|-----------------------------------------|
---------------------------2--|-----------------------------------------|
------------------0--3--5-----|-----------------------------------------|
---------0--3--5--------------|-----------------------------------------|
0--3--5-----------------------|-----------------------------------------|


Fill                                       Riff P
----------------------------------------|--------------|----------------|
----------------------------------------|--------------|----------------|
----------------------------------------|--------------|----------------|
----------------------------------------|--------------|----------------|
12--12--12--12--12--12--12--12--12--12--|--0--3--5--8--|----------------|
12--12--12--12--12--12--12--12--12--12--|--0--3--5--8--|----------------|


Riff Q              Riff R
-----------------|-----------------|------------------------------------|
-----------------|-----------------|------------------------------------|
-----------------|-----------------|------------------------------------|
-----------------|-----------------|------------------------------------|
0--3--5--13--12--|--0--3--5--8--7--|------------------------------------|
0--3--5--13--12--|--0--3--5--8--7--|------------------------------------|


Cool run 3                                Riff S
---------------------------------------|-------------------|------------|
---------------------------------------|-------------------|------------|
5--3--0--------------------------------|-------------------|------------|
---------5--3--0--------------------3--|-------------------|------------|
------------------5--3--0--------------|--12--10--9--8--7--|------------|
---------------------------5--3--0-----|--12--10--9--8--7--|------------|

-Organ Parts-
organ riff 1
15--16--13--15--11--13--10--11--|---------------------------------------|
--------------------------------|---------------------------------------|
--------------------------------|---------------------------------------|
--------------------------------|---------------------------------------|
--------------------------------|---------------------------------------|
--------------------------------|---------------------------------------|


organ riff 2
15--16--13--15--11--13--10--11--8--10--11--10--8--10--11--|-------------|
----------------------------------------------------------|-------------|
----------------------------------------------------------|-------------|
----------------------------------------------------------|-------------|
----------------------------------------------------------|-------------|
----------------------------------------------------------|-------------|


organ riff 3
14--15--16--13--15--11--13--10--11--|-----------------------------------|
------------------------------------|-----------------------------------|
------------------------------------|-----------------------------------|
------------------------------------|-----------------------------------|
------------------------------------|-----------------------------------|
------------------------------------|-----------------------------------|


organ riff 4
14--15--16--13--15--11--13--10--11--8--10--11--10--8--10--11--|---------|
--------------------------------------------------------------|---------|
--------------------------------------------------------------|---------|
--------------------------------------------------------------|---------|
--------------------------------------------------------------|---------|
--------------------------------------------------------------|---------|


organ riff 5    organ riff 6         organ + trombone riforgan
-------------|--------------------|-------------------|--8--8--|--------|
-------------|--------------------|-------------------|--------|--------|
-------------|--------------------|-------------------|--------|--------|
10--9--8--7--|--10--9--13--13--7--|-------------------|--------|--------|
8---7--6--5--|--8---7--11--11--5--|--12--10--9--8--7--|--------|--------|
-------------|--------------------|--12--10--9--8--7--|--------|--------|


trombone riff 1                                      trom 2
--------------------------------------------------|--------|------------|
--------------------------------------------------|--------|------------|
--------------------------------------------------|--------|------------|
--------------------------------------------------|--------|------------|
8--8--7--5--8--8--7--5--8--8--7--5--12--10--8--5--|--5--5--|------------|
--------------------------------------------------|--------|------------|


trombone solo
------------------------------------------------------------------------|
------------------------------------------------------------------------|
------------------------------------------------------------------------|
------------------------------------------------------------------------|
16--17--16--17--12--13--12--13--10--12--10--12--7--8--7--8--7--5--7-----|
------------------------------------------------------------------------|

------------------------------------------------------------------------|
------------------------------------------------------------------------|
------------------------------------------------------------------------|
---------------------------------------------------18--19--18-----------|
8--7--12--12^--15--19--20--19--19--17--20--19--20--------------20-------|
------------------------------------------------------------------------|

--------------------------------|---------------------------------------|
--------------------------------|---------------------------------------|
--------------------------------|---------------------------------------|
--------------------------------|---------------------------------------|
20--19--20--19--17--19--17--19--|---------------------------------------|
--------------------------------|---------------------------------------|





Comments


Popular Devin Townsend tabs & chords
Suicide Bass Tabs
Back Where We Belong Chords
Ghost Chords
Gaia Tabs
Hide Nowhere Tabs
Quiet Riot Tabs
Random Analysis Tabs
Slow Me Down Intro Tabs
Solar Winds Intro Tabs
Traveller Tabs


Song lyrics



↑ Back to top | Tablatures and chords are parodies/interpretations of the original songs. You may use it for private study, scholarship, research or language learning purposes only
© 2014 AZChords.com Contact us | Privacy policy | DMCA | Add/correct tabs | Request tabs | Top 50 tabs